White Stripes - Cannon Chords & Tabs

 

Cannon Chords & Tabs

White Stripes Chords & Tabs

Version: 5 Type: Tab

Cannon Tab

Tabbed by kiwitabber

|-------------------|
|-------------------|
|-------------------|
|-------------------|   X 8
|-------------------|
|-0-12-7-7-6666-5-3-|



|-------------------|
|-------------------|
|-------------------|
|-------------------|
|-------------------|
|-0-3-0-3-0-3-0-3-0-|



|-------------------------|
|-------------------------|
|----9--------------------|
|-2--9--9-9--8-8-8-8--7-5-|   X 10
|-2--7--9-9--8-8-8-8--7-5-|
|-0-----7-7--6-6-6-6--5-3-|



|------------------------------------|
|------------------------------------|
|------------------------------------|
|------------------------------------|
|------------------------------------|
|-0-3-0-3-0-3-0-3-0-33-0-3-0-3-0-3-0-|


[ Tab from: http://www.guitartabs.cc/tabs/w/white_stripes/cannon_tab_ver_5.html ]
|------------------------0---0--|
|--------------------------0----|
|-------------------------------|
|--2-2-2-2-2-2-2-2-2-2----------|   
|--2-2-2-2-2-2-2-2-2-2----------|
|--0-0-0-0-0-0-0-0-0-0----------|



|-----------0---0--|
|-------------0----|
|------------------|
|--2-2-2-----------|   X  I donít know how many
|--2-2-2-----------|
|--0-0-0-----------|



|-----------------|
|-----------------|
|-----------------|
|--7-7---5-5---2--|
|--7-7---5-5---2--|
|--5-5---3-3---0--|



|-------------------------|
|-------------------------|
|----9--------------------|
|-2--9--9-9--8-8-8-8--7-5-|   X 8
|-2--7--9-9--8-8-8-8--7-5-|
|-0-----7-7--6-6-6-6--5-3-|



|-------------------------------------|
|-17-17-17-15-15-15-14-14-14-13-13-13-|
|-------------------------------------|
|-------------------------------------|
|-------------------------------------|
|-------------------------------------|



|-------------------|
|-------------------|
|-------------------|
|-------------------|
|-------------------|
|-0-3-0-3-0-3-0-3-0-|