White Stripes - Cannon Chords & Tabs

 

Cannon Chords & Tabs

White Stripes Chords & Tabs

Version: 3 Type: Tab 0 ratings
1 star 2 stars 3 stars 4 stars 5 stars
comments

Cannon Tab

                   THE WHITE STRIPES       
                        CANNON

I'm doing this by memory so peice it together by listening to it and youll get it...
I think its a lot better than the other one...


e|---------------------------------------------------------------|
B|---------------------------------------------------------------|
G|---------------------------------------------------------------| x8?
D|---------------------------------------------------------------|
A|------7--------------------------------------------------------|
E|-0--------7---7---6--6--6--6---5--3----------------------------|

after a while it goes into
[ Tab from: http://www.guitartabs.cc/tabs/w/white_stripes/cannon_tab_ver_3.html ]
e|---------------------------------------------------------------|
B|---------------------------------------------------------------|
G|---------------------------------------------------------------|
D|---------------------------------------------------------------|
A|--2--2---2--2---2--2---2--2---2--------------------------------|
E|--0--3b--0--3b--0--3b--0--3b--0--------------------------------|
                                 hold and lead into...
e|---------------------------------------------------------------|
B|---------------------------------------------------------------|
G|---------------------------------------------------------------|
D|-9-------------------------------------------------------------|
A|-7--9---9---8--8--8--8--7--5b----------------------------------|
E|----7---7---6--6--6--6--5--3b----------------------------------|


johnny rebel ridin' part   (E and G chord)...listen for strumming
e|--0--0--0--0--0--0--0--0--3--3---------------------------------|
B|--0--0--0--0--0--0--0--0--0--0---------------------------------|
G|--1--1--1--1--1--1--1--1--0--0---------------------------------|
D|--2--2--2--2--2--2--2--2--0--0---------------------------------|
A|--2--2--2--2--2--2--2--2--2--2---------------------------------|
E|--0--0--0--0--0--0--0--0--3--3---------------------------------|

the solo thing goes like

e|------12-12-12-12-10-10-10-10-9-9-9-9-8-8-8-8------------------|x3?
B|---------------------------------------------------------------|
G|---------------------------------------------------------------|
D|---------------------------------------------------------------|
A|---------------------------------------------------------------|
E|---------------------------------------------------------------|

well since i havnt listened to the song in a while and dont have it available thats it...good luck.
Comments