White Stripes - Cannon Chords & Tabs

 

Cannon Chords & Tabs

White Stripes Chords & Tabs

Version: 1 Type: Tab 2 ratings
1 star 2 stars 3 stars 4 stars 5 stars
comments

Cannon Tab

#----------------------------------PLEASE NOTE---------------------------------#
#This file is the author's own work and represents their interpretation of the #
#song. You may only use this file for private study, scholarship, or research. #
#------------------------------------------------------------------------------#

Artist: White Stripes
Song Title: Cannon 
CD: The White Stripes 
Track: 7  
Tabber: GuitarAnarchist

Standard Tuning


Intro:                                   
E|-----------------------------|
B|-----------------------------|
G|-----------------------------|
D|-----------------------------| x2
A|-----7-----------------------|
E|--0-----7--7--6-6-6-6--5--3--|


Verse 1:
E|-----------------------------|
B|-----------------------------|
G|-----------------------------| x6
D|-----------------------------|
A|-----7-----------------------|
E|--0-----7--7--6-6-6-6--5--3--|
                     
                      
                         
                       
                      
E|--------------------------|
B|--------------------------|
G|--------------------------|  
D|--------------------------|
A|--------------------------|
E|--0--3--0--3--0--3--0--3--|
    Nowhere           yeah

E|-----------------------------|
B|-----------------------------|
G|-----------------------------|  
D|-----------------------------|  
A|-----------------------------|  
E|--0--3--0--3--0--3--0—-3--0--|
    Nowhere


Verse 2

E|-----------------------------|
B|-----------------------------|
G|-----9-----------------------|
D|-----9--9--9--8-8-8-8--7--5--|
A|-----7--9--9--8-8-8-8--7--5--|
E|--------7--7--6-6-6-6--5--3--|
[ Tab from: http://www.guitartabs.cc/tabs/w/white_stripes/cannon_tab.html ]
E|-----------------------------|
B|-----------------------------|
G|-----9-----------------------| x9
D|-----9--9--9--8-8-8-8--7--5--|
A|-----7--9--9--8-8-8-8--7--5--|
E|--0-----7--7--6-6-6-6--5--3--|
    Woo!           
                      
                            
                     
                
                  
                      
                     
                  

E|--------------------------|
B|--------------------------|
G|--------------------------| 
D|--------------------------|
A|--2--2--2--2--2--2--2--2--|
E|--0--3--0--3--0--3--0--3--|

E|-----------------------------|
B|-----------------------------|
G|-----------------------------| let last
D|-----------------------------| chord ring
A|--2--2--2--2--2--2--2--2--2--| for 2 beats
E|--0--3--0--3--0--3--0--3--0--|


Bridge:
Palm mute the E5 chord (accent every third or fourth chord)

E|------------------------------------------------------------------------|
B|------------------------------------------------------------------------|
G|------------------------------------------------------------------------|
D|--2--2--2--2---------------------------------------5-------4---------2--|
A|--2--2--2--2---------------------------------------5-------4---------2--|
E|--0--0--0--0---------------------------------------3-------2---------0--|
   


Verse 3:
E|-----------------------------|
B|-----------------------------|
G|-----9-----------------------|
D|-----9--9--9--8-8-8-8--7--5--| x7
A|-----7--9--9--8-8-8-8--7--5--|
E|--0-----7--7--6-6-6-6--5--3--|
    N.L.
    

E|-----------------------------|
B|-----------------------------|
G|-----9--------x-x-x-x--x--x--| 
D|-----9--9--9--x-x-x-x--x--x--|
A|-----7--9--9--x-x-x-x--x--x--|
E|--0-----7--7--x-x-x-x--x--x--|



OUTRO:

E|-12-12-10-10-9-9-8-8--|
B|----------------------|
G|----------------------| x3
D|----------------------|
A|----------------------|
E|----------------------|

E|--------------------------------|
B|--------------------------------|
G|--------------------------------| 
D|--------------------------------|
A|--2--2--2--2--2--2--2--2--2-----|
E|--0--3--0--3--0--3--0--3--0-----|
                            Evil!


Comments