White Stripes - Broken Bricks Chords & Tabs

 

Broken Bricks Chords & Tabs

White Stripes Chords & Tabs

Version: 1 Type: Tab 0 ratings
1 star 2 stars 3 stars 4 stars 5 stars
comments

Broken Bricks Tab

BROKEN BRICKS - The White Stripes

alright, here we go


play this twice for the intro. it's the same thing over the verses just skip the muted notes
e--------------------------------------------------------------------
b--------------------------------------------------------------------
g--------------------------------------------------------------------
d--5--5-5--8--8-8--10--10-10--8--8-8--5--5-5--8--8-8--xx--10-10--8-8-	x2
a--5--5-5--8--8-8--10--10-10--8--8-8--5--5-5--8--8-8--xx--10-10--8-8-
e--3--3-3--6--6-6---8---8-8---6--6-6--3--3-3--6--6-6--xx---8--8--6-6-

keep doing this over the verses until whenever
e-------------------------------------------------------------------
b-------------------------------------------------------------------
g-------------------------------------------------------------------
d--5--5-5--8--8-8--10--10-10--8--8-8--5--5-5--8--8-8---10-10--8-8---	
a--5--5-5--8--8-8--10--10-10--8--8-8--5--5-5--8--8-8---10-10--8-8---
e--3--3-3--6--6-6---8---8-8---6--6-6--3--3-3--6--6-6----8--8--6-6---

interlude thing, play this part twice then it goes to....
e---------------------------------------------------
b---------------------------------------------------
g---------------------------------------------------	x2
d-7-7-7--5-5-5--7-7-7--5-5-5--7-7-7--5-5-5-10-9-8-7-
a-7-7-7--5-5-5--7-7-7--5-5-5--7-7-7--5-5-5-10-9-8-7-
e-5-5-5--3-3-3--5-5-5--3-3-3--5-5-5--3-3-3--8-7-6-5-
[ Tab from: http://www.guitartabs.cc/tabs/w/white_stripes/broken_bricks_tab.html ]
this
e-------------------------------------------------------------------
b-------------------------------------------------------------------
g-------------------------------------------------------------------
d--5--5-5--8--8-8--10--10-10--8--8-8--5--5-5--8--8-8--x--10-10--8-8-	
a--5--5-5--8--8-8--10--10-10--8--8-8--5--5-5--8--8-8--x--10-10--8-8-
e--3--3-3--6--6-6---8---8--8--6--6-6--3--3-3--6--6-6--x---8--8--6-6-

verse
e-----------------------------------------------------------------
b-----------------------------------------------------------------
g-----------------------------------------------------------------
d--5--5-5--8--8-8--10--10-10--8--8-8--5--5-5--8--8-8---10-10--8-8-	
a--5--5-5--8--8-8--10--10-10--8--8-8--5--5-5--8--8-8---10-10--8-8-
e--3--3-3--6--6-6---8---8-8---6--6-6--3--3-3--6--6-6----8--8--6-6-

interlude, then go to...
e---------------------------------------------------
b---------------------------------------------------
g---------------------------------------------------	x2
d-7-7-7--5-5-5--7-7-7--5-5-5--7-7-7--5-5-5--4-5-6-7-
a-7-7-7--5-5-5--7-7-7--5-5-5--7-7-7--5-5-5--4-5-6-7-
e-5-5-5--3-3-3--5-5-5--3-3-3--5-5-5--3-3-3--2-3-4-5-

this
e--------------------------
b--------------------------
g--------------------------
d-4-4-4--7-7-7-x-9-9--11-11
a-4-4-4--7-7-7-x-9-9--11-11
e-2-2-2--5-5-5-x-7-7--9--9-

verse
e--------------------------
b--------------------------
g--------------------------
d-4-4-4--7-7-7--9-9--11-11-
a-4-4-4--7-7-7--9-9--11-11-
e-2-2-2--5-5-5--7-7--9--9--

e-----
b-----
g--5--
d--5--
a--7--
e-----

i wasn't sure about the chord it ends on but this sounds close enough to me.


anyways, this is my first tab so it's probably not perfect. if you have any
comments or corrections or anything e-mail me box_0f_crayons@hotmail.com
(the o in 'of' is a zero)

-Laura
Comments