White Stripes - Blue Orchid Chords & Tabs

 

Blue Orchid Chords & Tabs

White Stripes Chords & Tabs

Version: 1 Type: Tab 1 rating
1 star 2 stars 3 stars 4 stars 5 stars
comments

Blue Orchid Tab

   
#----------------------------------PLEASE NOTE---------------------------------#
#This file is the author's own work and represents their interpretation of the #
#song. You may only use this file for private study, scholarship, or research. #
#------------------------------------------------------------------------------#


Song: Blue Orchid
Artist: The White Stripes
Album: Get Behind Me Satan
Tabbed by: Gouge97

Real nice first song from the upcoming new album.  I guess Jack is talkin to
Jason Stollsteimer of the Von Bondies here.  Interesting...


Part A:

begin with:
e------
B------
G------
D--5---
A--5---
E--3---

then play this 3 times:
e-------------------------------------------------
B-------------------------------------------------
G-------3---------------3--5--7--10--12-----------
D---3-5-3--3----5---3-5-3--5--7--10--12-5---------
A---3-5-1--3----5---3-5-1--3--5--8---10-5---------
E---1-3----1----3---1-3-----------------3---------
[ Tab from: http://www.guitartabs.cc/tabs/w/white_stripes/blue_orchid_tab.html ]
e-------------------------------------------------
B-------------------------------------------------
G-------3----------3---------3--5--7--10--12------
D---3-5-3--3---3-5-3-5---3-5-3--5--7--10--12-5----
A---3-5-1--3---3-5-1-5---3-5-1--3--5--8---10-5----
E---1-3----1---1-3---3---1-3-----------------3----
                                           |
                                           |
                                            \__/note: the first time, Jack plays \
                                               |something like G-7-10-12-        |
                                               |               D-7-10-12-        |
                                               |               A-5-8--10-        |
                                               |really fast instead of only G-12-|
                                               |                            D-12-|
                                               \                            A-10-/

Part B:

play this 2 times:
e-------------------------------------------------
B-------------------------------------------------
G---7-5-3------7-5-3-----7-5-3--------------------
D---7-5-3--3---7-5-3-5---7-5-3--3--3--3--3-5------
A---5-3-1--3---5-3-1-5---5-3-1--3--3--3--3-5------
E----------1---------3----------1--1--1--1-3------

then play this:
e-------------------------------------------------
B-------------------------------------------------
G---7p5-3-----7p5-3-0---7p5-3---------------------
D---------3-------------------3-3-3-3-5-----------
A-------------------------------------------------
E-------------------------------------------------

e-------------------------------------------------
B-------------------------------------------------
G---7p5-3-----7p5-3-0---7p5-3---------------------
D---------3-------------------3-3-3-3-------------
A-------------------------------------------------
E-------------------------------------------------
Comments