White Stripes - Black Math Chords & Tabs

 

Black Math Chords & Tabs

White Stripes Chords & Tabs

Version: 2 Type: Tab 3 ratings
1 star 2 stars 3 stars 4 stars 5 stars
comments

Black Math Tab

 
Black math
The white stripes
distortion shoud be turned up 1/2 way



 ------------------------
 --7---------------------
 --7---------------------
 --5---------------------
 ------------------------
[ Tab from: http://www.guitartabs.cc/tabs/w/white_stripes/black_math_tab_ver_2.html ]
------------------------
--7----------------------
--7-----------------------
--5-----------------------

 ------------------------
 ------------------------
 ------------------------
 --9----9---9---9-------
 --9----9---9---9-------
 --7----7---7---7-------
Comments