White Stripes - Black Jack Davey Chords & Tabs

 

Black Jack Davey Chords & Tabs

White Stripes Chords & Tabs

Version: 2 Type: Tab 0 ratings
1 star 2 stars 3 stars 4 stars 5 stars
comments

Black Jack Davey Tab

   
Band: The White Stripes
Song: Black Jack Davey
Album: Black Jack Davey - single

Tabbed by:Zac 
Email:snap_quiz@hotmail.com

palm mute = *
slide     = /
Let Ring  = ()

Chords

E  (0 2 2 1 0 0)
Am (x 0 2 2 1 0)
F  (1 3 3 2 1 1)

Distortion
                                          E
|----------|------------|----------------(0)-|----------|------------|
|----------|------------|----------------(0)-|----------|------------|
|----------|------------|----------------(1)-|----------|------------|
|----------|-0--0-2-----|----------0--2--(2)-|----------|-0--0-2-----|
|-0--0-0-3-|--------3-0-|-0--0-0-3----2--(2)-|-0--0-0-3-|--------3-0-|
|----------|------------|-------------0--(0)-|----------|------------|
                                      *
                                               F        Am
|--------------|-2-3-3-2-3-3-2-|-------------|-1-1/3-3-|---0--0-0---0--0-0-|
|--------------|-3-3-3-3-3-3-3-|-------------|-1-1/3-3-|---1--1-1---1--1-1-|
|--------------|-2-2-2-2-2-2-2-|-2-0---------|-2-2/4-4-|-2-2--2-2-2-2--2-2-|
|--------------|---------------|-----2-0-----|-3-3/5-5-|-2--------2--------|
|-0--0-0-3-3---|---------------|---------3-0-|-3-3/5-5-|-0--------0--------|
|------------0-|---------------|-------------|-1-1/3-3-|-------------------|
                                                         *        *
Am
|---0--0-0---0--0-0---0--0---0---0---0--0-|
|---1--1-1---1--1-1---1--1---1---1---1--1-|
|-2-2--2-2-2-2--2-2-2-2--2-2-2---2-2-2--2-| 
|-2--------2--------2------2-------2------|
|-0--------0--------0------0-------0------|
|-----------------------------------------|
  *        *        *      * *   * * *  * 
Am                              E
|---0--0----0----0--0-|---------0-|
|---1--1----1----1--1-|---------0-|
|-2-2--2--2-2--2-2--2-|---------1-|
|-2-------2----2------|---------2-|
|-0-------0----0------|---------2-|
|---------------------|---------0-|
  * *  *  * *  * *  *            
  Black Jack Davey...loud and merry.
Am                                      F   D
|---0-0---0----0-0---0-|----------------0---2---|
|---1-1---1----1-1---1-|----------------0---3---|
|-2-2-2-2-2--2-2-2-2-2-|----------------1---2---| 
|-2-----2----2-----2---|----------------2---0---|
|-0-----0----0-----0---|----------------2---0---|
|----------------------|----------------0-------|
  * * * * *  * * * * *                 
 Made the woods around......heart of a  la--dy,
Am              E Am
|---0-0-0---|---0--0-|
|---1-1-1---|---0--1-|
|-2-2-2-2-2-|---1--2-|
|-2-------2-|---2--2-|
|-0-------0-|---2--0-|
|-----------|---0--x-|
  * * * * *
Charmed... a   la--dy
                                              E
|---0-0---0---0-0---0---0-0---0---0-0---|-----0--|
|---1-1---1---1-1---1---1-1---1---1-1---|-----0--|
|-2-2-2-2-2-2-2-2-2-2-2-2-2-2-2-2-2-2---|-----1--| 
|-2-----2---2-----2---2-----2---2-------|-----2--|
|-0-----0---0-----0---0-----0---0-------|-----2--|
|---------------------------------------|-----0--|
  * * * * * * * * * * * * * * * * * *                      
How old are you, my pretty............... my honey                
Am                                                             E  Am
|---0-0---0---0-0---0---0-0---0---0-0---|----------------------0---0-|
|---1-1---1---1-1---1---1-1---1---1-1---|----------------------0---1-|
|-2-2-2-2-2-2-2-2-2-2-2-2-2-2-2-2-2-2---|----------------------1---2-| 
|-2-----2---2-----2---2-----2---2-------|----------------------2---2-|
|-0-----0---0-----0---0-----0---0-------|----------------------2---0-|
|---------------------------------------|----------------------0-----|
  * * * * * * * * * * * * * * * * * *                      
She answered to him with a lovin' smile "I'll be sixteen come Sun-day,"

Am                E  Am
|---0-0---0-|-----0---0-|
|---1-1---1-|-----0---1-|
|-2-2-2-2-2-|-----1---2-| 
|-2-----2---|-----2---2-|
|-0-----0---|-----2---0-|
|-----------|-----0-----|
  * * * * *                      
 Be sixteen come Sun-day.
[ Tab from: http://www.guitartabs.cc/tabs/w/white_stripes/black_jack_davey_tab_ver_2.html ]
Am                                                                  E  
|---0-0---0---0-0---0---0-0---0---0-0---|---------------------------0-|
|---1-1---1---1-1---1---1-1---1---1-1---|---------------------------0-|
|-2-2-2-2-2-2-2-2-2-2-2-2-2-2-2-2-2-2---|---------------------------1-| 
|-2-----2---2-----2---2-----2---2-------|---------------------------2-|
|-0-----0---0-----0---0-----0---0-------|---------------------------2-|
|---------------------------------------|---------------------------0-|
  * * * * * * * * * * * * * * * * * *
Come and go with me, my pretty little miss,Come and go with me, my honey,

Am                                                            E  Am
|---0-0---0---0-0---0---0-0---0---0-0---|---------------------0---0-|
|---1-1---1---1-1---1---1-1---1---1-1---|---------------------0---1-|
|-2-2-2-2-2-2-2-2-2-2-2-2-2-2-2-2-2-2---|---------------------1---2-| 
|-2-----2---2-----2---2-----2---2-------|---------------------2---2-|
|-0-----0---0-----0---0-----0---0-------|---------------------2---0-|
|---------------------------------------|---------------------0-----|
  * * * * * * * * * * * * * * * * * *
Take you where the grass grows green,You never will want for  mo-ney
Am                      E  Am
|---0-0---0-|-----------0---0-|
|---1-1---1-|-----------0---1-|
|-2-2-2-2-2-|-----------1---2-| 
|-2-----2---|-----------2---2-|
|-0-----0---|-----------2---0-|
|-----------|-----------0-----|
  * * * * *               
You never will want for mo-ney    Hey!

|---0-0---0---0-0---0-|
|---1-1---1---1-1---1-|
|-2-2-2-2-2-2-2-2-2-2-| 
|-2-----2---2-----2---|
|-0-----0---0-----0---|
|---------------------|
  * * * * * * * * * *              

Solo:
|----------|------------|----------------|-0-0-|----------|------------|
|----------|------------|----------------|-0-0-|----------|------------|
|----------|------------|----------------|-1-1-|----------|------------|
|----------|-0--0-2-----|----------0-0-2-|-2-2-|----------|-0--0-2-----|
|-0--0-0-3-|--------3-0-|-0--0-0-3-------|-2-2-|-0--0-0-3-|--------3-0-|
|----------|------------|----------------|-0-0-|----------|------------|
                          D
|----------|------------|-2--|-------------|-3-5--|
|----------|------------|-3--|-------------|-3-5--|
|----------|------------|-2--|-2-0---------|-4-6--|
|----------|-0--0-2-----|-0--|-----2-0-----|-5-7--|
|-0--0-0-3-|--------3-0-|----|---------3-0-|-5-7--|
|----------|------------|----|-------------|-3-5--|
                                              Solo End

Am                                                                  E  
|---0-0---0---0-0---0---0-0---0---0-0---|---------------------------0-|
|---1-1---1---1-1---1---1-1---1---1-1---|---------------------------0-|
|-2-2-2-2-2-2-2-2-2-2-2-2-2-2-2-2-2-2---|---------------------------1-| 
|-2-----2---2-----2---2-----2---2-------|---------------------------2-|
|-0-----0---0-----0---0-----0---0-------|---------------------------2-|
|---------------------------------------|---------------------------0-|
  * * * * * * * * * * * * * * * * * *
Pull off, pull off your long blue gloves        made of Spanish leather.
Am                                                   E    D
|---0-0---0---0-0---0---0-0---0---0-0---|------------0----2-|
|---1-1---1---1-1---1---1-1---1---1-1---|------------0----3-|
|-2-2-2-2-2-2-2-2-2-2-2-2-2-2-2-2-2-2---|------------1----2-| 
|-2-----2---2-----2---2-----2---2-------|------------2----0-|
|-0-----0---0-----0---0-----0---0-------|------------2----0-|
|---------------------------------------|------------0------|
  * * * * * * * * * * * * * * * * * *
give to me your lily white hand and we'll ride off to-gether
 Am                                E    Am
|---0-0---0---0-0---0-|---0----0-|
|---1-1---1---1-1---1-|---0----1-|
|-2-2-2-2-2-2-2-2-2-2-|---1----2-| 
|-2-----2---2-----2---|---2----2-|
|-0-----0---0-----0---|---2----0-|
|---------------------|---0------|
  * * * * * * * * * * 
said we'll both ride off  to-gether

//you can figure the rest out yourself\\
Comments