White Stripes - Ball And Biscuit Chords & Tabs

 

Ball And Biscuit Chords & Tabs

White Stripes Chords & Tabs

Version: 5 Type: Tab 0 ratings
1 star 2 stars 3 stars 4 stars 5 stars
comments

Ball And Biscuit Tab

White Stripes
Ball and biscuit

Standard tuning
h-hammer on
p-pull off
/-slide up
\-slide down
x-mute
Riff 1
e------0-0-0------0-0-0---------------
b------5-5-5------5-5-5---------------
g------7-7-7------7-7-7---------------  
d------6-6-6------6-6-6---------------   x's 7
a--2---7-7-7---2--7-7-7---------------
E--0---------3-0----------------------


e-------------------------------------
b-------------------------------------
g--/444\-2p0--------------------------
d------------2p0----------------------
a-------------------------------------
E----------------3--------------------

[ Tab from: http://www.guitartabs.cc/tabs/w/white_stripes/ball_and_biscuit_tab_ver_5.html ]
Riff 2
e--x--x-x-x-x-x-x-x--|--x--x-x-x-x-x-x-x--x--x-x-
b--5--5-5-5-5-5-5-5--|--5--5-5-5-5-5-5-5--5--5-5-
g-----------------------6--6-6-6-6-6-6-6--6--6-6-   
d--5--5-5-5-5-5-5-5--|--5--5-5-5-5-5-5-5--5--5-5-
a--x--x-x-x-x-x-x-x--|---------------------------
E--5--5-5-5-5-5-5-5--|--5--5-5-5-5-5-5-5--5--5-5-


Riff 3
e--x--x-x-x-x-x-x-x---x--x-x-x-x-x-x-x--x--x-x-----------------------
b--7--7-7-7-7-7-7-7---5--5-5-5-5-5-5-5--5--5-5----------------------
g--8--8-8-8-8-8-8-8---6--6-6-6-6-6-6-6--6--6-6--------------------
d--7--7-7-7-7-7-7-7---5--5-5-5-5-5-5-5--5--5-5--------------------
a--x--x-x-x-x-x-x-x---x--x-x-x-x-x-x-x--x--x-x----------------------
E--7--7-7-7-7-7-7-7---5--5-5-5-5-5-5-5--5--5-5---------------------


e-----------------------------------
b-00-00-00--------------------------
g-44-33-22--0h1---------------------
d---------------2-------------------
a-----------------------------------
E-----------------------------------
Comments