White Stripes - Ball And Biscuit Chords & Tabs

 

Ball And Biscuit Chords & Tabs

White Stripes Chords & Tabs

Version: 3 Type: Tab 3 ratings
1 star 2 stars 3 stars 4 stars 5 stars
comments

Ball And Biscuit Tab

submited by: pooponabagel, the man who brought you the 70s show tab

Allright, the other version of ball and biscuit
on this site is WRONG!  This is who the real thing
goes (no solos, sorry)
[ Tab from: http://www.guitartabs.cc/tabs/w/white_stripes/ball_and_biscuit_tab_ver_3.html ]
key
h - hammer on
p - pulloff
/ - slide
m - mute (put your hands over the strings AFTER playing the notes)
pm - palm mute (pute your hands over the strings WHILE playing the notes)
x - scratchy sound (put fingers on frets, not pushing down strings) 
 be sure to improvise a little on the verses
 
      
 ----0m0---------0-x-0--x--x-x-x-x---------0m0--0-m-0
 ----0m0---------0-x-0--x--x-x-x-x---------0m0--0-m-0
 -1--1m1---------1-x-1--x--x-x-x-x-----x--x1m1--1-m-1
 -2---------------------x--x-x-x-x-----x--x----------
 -2---------------------x--x-x-x-x-----x--x----------
 -0---------3p0---------x--x-x-x-x-3p0-x--x----------

verse 2
 -----0-0m0-0
 -----2-2m2-2
 -----2-2m2-2
 ------------
 --0---0-----
 -3----------

then back to verse one

chorus

 ---------------------------0m0
 ---------------------------0m0
 ---------------------------1m1
 --------2--2--2--2--2--2------
 ------2-----0-----------------
 -3p0--------------4-----0-----
thats it
Comments