White Stripes - Astro Chords & Tabs

 

Astro Chords & Tabs

White Stripes Chords & Tabs

Version: 5 Type: Tab 0 ratings
1 star 2 stars 3 stars 4 stars 5 stars
comments

Astro Tab

   
this is a pretty easy song to learn

use slight distortion, Jack white uses Electro Harmonix pedals

h-hammer on
p-pull off
/-slide

at the begin when jack is starting the beat with 1-2-3-4 you bend the 12th fret on the A string

Intro
e-----------------------|
B-----------------------|
G-----------------------|  2x
D-----------------------|
A-----------------------|
E-0-3-0-3-0-0-3-3-0-3---|

the riff is about the same as the intro

e-----------------------|
B-----------------------|
G-----------------------|
D-----------------------|
A-----------------------|
E-0-3-0-3-0-3-0-3-------|

e-----------------------|
B-----------------------|
G-----------------------|
D-----------------------|
A-----------------------|
E--5-7-7-5-3-2----------|

then it goes back to the riff

e-----------------------|
B-----------------------|
G-----------------------|
D-----------------------|
A-----------------------|
E-0-3-0-3-0-3-0-3-------|

e-----------------------|
B-----------------------|
G-----------------------|  3x
D-----------------------|
A-----------------------|
E-0h5---3-0-------------|

e-----------------------|
B-----------------------|
G-----------------------|
D-----------------------|
A-----------------------|
E-7----5-7-7-5-3-2------|

e-----------------------|
B-----------------------|
G-----------------------|
D-----------------------|
A-----------------------|
E-0-3-0-3-0-3-0-3-------|

e-----------------------|
B-----------------------|
G-----------------------|
D-----------------------|
A-----------------------|
E-5--3-5--5-5-3--5-5-3--|

then the riff changes slightly

e-----------------------|
B-----------------------|
G-----------------------|
D-----------------------|
A-----------------------|
E-0-3-3-0-3-3-0-3-0-3-3-|

then back to the regular riff

e-----------------------|
B-----------------------|
G-----------------------|
D-----------------------|
A-----------------------|
E-0-3-0-3-0-3-0-3-------|

e-----------------------|
B-----------------------|
G-----------------------|  3x
D-----------------------|
A-----------------------|
E-0h5---3-0-------------|
[ Tab from: http://www.guitartabs.cc/tabs/w/white_stripes/astro_tab_ver_5.html ]
e-----------------------|
B-----------------------|
G-----------------------|
D-----------------------|
A-----------------------|
E-7----5-7-7-5-3-2------|

then the riff changes again

e-----------------------|
B-----------------------|
G-----------------------|
D-----------------------|
A-----------------------|
E-0-0-0-0h3-------------|

e-------------------------|
B-------------------------|
G-------------------------|
D---7---7p5h7p5h7p5-------|
A-----7-------------7-6-5-|
E-5-----------------------|

e-------------------------|
B-------------------------|
G-------------------------|
D-------------------------|
A-3h5p3h5p3h5p3h5p3-------|
E-------------------5-----|

then turn up the the distortion all the way

  E G E G E E G G E G
e-------------------------|
B-------------------------|
G-------------------------|
D-2-5-2-5-2-2-5-5-2-5-----|
A-2-5-2-5-2-2-5-5-2-5-----|
E-0-3-0-3-0-0-3-3-0-3-----|

then the solo comes in, and plays at the same times as the part above

Solo
e-------------------------|
B-------------------------|
G-------------------------|
D-7/9-8-9-8-9-8-9-8-9-----|
A-------------------------|
E-------------------------|

e-------------------------|
B-------------------------|
G-------------------------|
D-9/5---------------------|
A-----77777777777---------|
E-------------------------|

e-------------------------|
B-------------------------|
G-------------------------|
D-------------------------|
A-141414141414141414141414
E-------------------------

e-------------------------|
B-------------------------|
G-------------------------|
D-------------------------|
A-141414141414141414-14/0-|
E-------------------------|

well...that's it!

Lyrics:
Maybe Jasper does the Astro
Maybe Jasper does the Astro
Maybe Jasper does the Astro, Astro

Maybe Lily does the Astro
Maybe Lily does the Astro
Maybe Lily does the Astro,Astro

Whoo! Aye!

Maybe Jackson does the Astro
Maybe Jackson does the Astro
Maybe Jackson does the Astro, Astro

Maybe Mama does the Astro
Maybe Mama does the Astro
Maybe Mama does the Astro, Astro

Maybe Tesla does the Astro
Maybe Tesla does the Astro
Maybe Edison is ACDC

good luck learning it
Comments