White Stripes - Astro Chords & Tabs

 

Astro Chords & Tabs

White Stripes Chords & Tabs

Version: 2 Type: Tab 0 ratings
1 star 2 stars 3 stars 4 stars 5 stars
comments

Astro Tab

This ain't exactly it but it will sound good with the song!

I did this all by ear and i haven't been playing for a year yet so it might not be the 
but im a beginner

NOTE: \/ = bend down

e---------------|
b---------------|
g---------------|
d---------------|
a--2--5---------| for a while unti it changes to
E--0--3---------|

certain parts in the song there's
a--7-----7-7-5---|
E--5-----5-5-5---|


-2--5--2--5-5-2-2--5--2-----------------------------------------|
-0--3--0--3-3-0-0--3--0-- later on you add ----7----------------|
                                           ----5---7-7-7-5-3-2--|
bridge is
[ Tab from: http://www.guitartabs.cc/tabs/w/white_stripes/astro_tab_ver_2.html ]
e-------------------------|
b-------------------------|
g-------------------------|
d-------------------------|
a--2-2-2-2-5-2-2-2-2-5----|
E--0-0-0-0-3-0-0-0-0-3----|


then the start of the solo of if you don't feel like playing it Jack leeds  you into 
the main part with it!

e---------------------------------------|
b---------------------------------------|
g--13\/--/\--\/-------------------------| bend a couple of times up and down
d---------------------------------------|
a---------------------------------------|
E---------------------------------------|

e--17-- play for a while then (slide form anywhere into a A chord or E i can't remember 
not listening to the song)
Comments