White Stripes - Astro Chords & Tabs

 

Astro Chords & Tabs

White Stripes Chords & Tabs

Version: 1 Type: Tab 0 ratings
1 star 2 stars 3 stars 4 stars 5 stars
comments

Astro Tab

Astro- The white stripes

Main Riff
[ Tab from: http://www.guitartabs.cc/tabs/w/white_stripes/astro_tab.html ]
e|--------------------------------------------------------------------------------------|
B|--------------------------------------------------------------------------------------|
G|---2--------2--------2--------2--------2-------2-------2---2----2---------------------|
D|---2--------2--------2--------2--------2-------2-------2---2----2---------------------|
A|---2--------2--------2--------2--------2-------2-------2---2----2---------------------|
E|------------3-----------------3----------------3------------------3-------------------|

Second bit

e|-------------------------------------------|
B|-------------------------------------------|
G|-------------------------------------------|
D|----4(let ring)----------------------------|
A|----2--------------------------------------|
E|----------------------5----5----3---2---0--|

thats the genral idea its my first tab so come on guys what do ya think?
Comments