White Stripes - Apple Blossom Chords & Tabs

 

Apple Blossom Chords & Tabs

White Stripes Chords & Tabs

Version: 4 Type: Chords 0 ratings
1 star 2 stars 3 stars 4 stars 5 stars
comments

Apple Blossom Chords

   
~~~~~~~~~~~~~~~~~~~~~~~~~~~~~~~~~~~~~~~~~~~~~~~~~~~~~~~~~~~~~~~~~~~~~~~~~~~~~~~~~~~~~~~~~~~~~~~~~~
~ I made the tabs myself. And I think it's pretty good. If you want tips or 
anything, just write me :)~
~~~~~~~~~~~~~~~~~~~~~~~~~~~~~~~~~~~~~~~~~~~~~~~~~~~~~~~~~~~~~~~~~~~~~~~~~~~~~~~~~~~~~~~~~~~~~~~~~~



Apple Blossom
The White Stripes



Intro:
| 1  +  2  +  3  +  4  +  +  |
| Am    Am    Am    Am    A7 | 2x


Verse 1:                                            Chorus:
Am                A7 Am            A7               D                    Am
Hey, little Apple    Blossom, what                  .Lots of girls walk around in tears.
D                A7 D        A7                     E                   Am
.Seems to be the    problem?                        .But thatís not for you.
Am                          A7 Am                   D                         Am
.All the ones you tell your    troubles to,         .You've been looking all around for years,
     E            G        Am     A7                        B                               E   G
They don't really care for you.                     For someone to tell your troubles to.

Verse 2:                                            Verse 3:
Am                           A7 Am          A7      Am                    A7  Am          A7
Come and tell me what you're    thinking, cause     .Come and sit with me and talk awhile.
D                     A7 D        A7                D                       A7 D            A7
Just when the boat is    sinking,                   .Let me see your pretty    little smile.
Am                 A7 Am                            Am                    A7 Am
.A little light is    blinking.                     .Put your troubles in a  little pile,
    E               G      Am     A7                    E                G       Am             A7
And I will come and rescue you.                     And I will sort them out for you. (Alright!)

[ Tab from: http://www.guitartabs.cc/tabs/w/white_stripes/apple_blossom_crd_ver_4.html ]
Solo:
 | Am              | D             | Am            | B           E G |
e|-----------------|---------------|---------------|-----------------|
B|-----------------|---------------|---------------|-----------------|
G|-----------------|---------------|---------------|-----------------|
D|-----------------|-5h7-7-5-3-2-0-|---------------|-----------------|
A|-5h7-7-7-5-3-2-0-|---------------|-5h7-7-5-3-2-0-|-2-2-2-3-3-2-----|
E|-----------------|---------------|---------------|-------------0-3-|

 | Am                 | D               | Am                      | B         E Am ||
e|--------------------|-----------------|-------------------------|----------------||
B|--------------------|-8h10-10-8-6-5-3-|-------------------------|----------------||
G|-7h9-9-7-5-4-2-(2/)-|-----------------|-7h9-5h7-4h5-4-5-7-5-4-2-|-2h4-4-4---0-2--||
D|--------------------|-----------------|-------------------------|---------2------||
A|--------------------|-----------------|-------------------------|----------------||
E|--------------------|-----------------|-------------------------|----------------||


Chorus:                                             Verse 4:
D                    Am                             Am                    A7  Am          A7
.Lots of girls walk around in tears.                .Come and sit with me and talk awhile.
E                   Am                              D                       A7 D           A7
.But thats not for you.                             .Let me see your pretty    little smile.
D                         Am                        Am                    A7 Am
.You've been looking all around for years,          .Put your troubles in a  little pile,
        B                               E   G           E                G       Am
For someone to tell your troubles to.               And I will sort them out for you.

                                                    Outro:
                                                    E             G         Am
                                                    .I'll fall in love with you. 
                                                    E             G         Am  Am Am
                                                    .I think I'll marry you.
Comments