White Stripes - Aluminum Chords & Tabs

 

Aluminum Chords & Tabs

White Stripes Chords & Tabs

Version: 2 Type: Tab 0 ratings
1 star 2 stars 3 stars 4 stars 5 stars
comments

Aluminum Tab

---------------------------------------------------------------------------
----------------------The White Stripes - Aluminum-------------------------
---------------------------------------------------------------------------

Tabbed by: Shortys99887	
Email: shortys99887@hotmail.com

Tuning: Standard [EADGBe]

For this song, turn the distortion up to the max

Just listen to the song for timing and stuff
[ Tab from: http://www.guitartabs.cc/tabs/w/white_stripes/aluminum_tab_ver_2.html ]
Main Riff:
e|-----------------------------------------|
B|-----------------------------------------|
G|-----------------------------------------|
D|-----------------------------------------|
A|-----------------------------------------|
E|-0----0----3^---0----0----3----2----1----|


Play this sometimes 
e|-----------------------------------------|
B|-----------------------------------------|
G|-4--4--4--4---7--7--7--7-----------------|
D|-4--4--4--4---7--7--7--7-----------------|
A|-2--2--2--2---5--5--5--5-----------------|
E|-----------------------------------------|

And that is the whole song
Comments