White Stripes - 7 Nation Army Open A Tuning Chords & Tabs

 

7 Nation Army Open A Tuning Chords & Tabs

White Stripes Chords & Tabs

Version: 1 Type: Tab 15 ratings
1 star 2 stars 3 stars 4 stars 5 stars
comments

7 Nation Army Open A Tuning Tab

   
Artist: The White Stripes
Song: Seven Nation Army

tabbed by pnk_rok_animal

Guitar: E A E A C# E (open A tuning)



Intro/verse, octave effect.

E |--------------------------------|
C#|--------------------------------|
A |--------------------------------|
E |--------------------------------|
A |--7--7--10--7--5--3--2----------|
E |--------------------------------|

Pre-Chorus/after chorus/pre-solo x1: overdrive
E |-----|------------------------|-----------------------|
C#|-----|------------------------|-----------------------|
A |-----|------------------------|-----------------------|
E |--0--|------------------------|-----------------------|
A |--0--|--5--5--5--5--5--5--5---|--7--7--7--7--7--7--7--|
E |--0--|--3--3--3--3--3--3--3---|--5--5--5--5--5--5--5--|


Chorus x2: overdrive, use steel slide
E |-----------------------------------------------------------|
C#|--7----7----10-------7-----5-----3----------2--------------|
A |--7----7----10-------7-----5-----3----------2--------------|
E |--7----7----10-------7-----5-----3----------2--------------|
A |--7----7----10-------7-----5-----3----------2------x--x----|
E |-----------------------------------------------------------|

E |-----------------------------------------------------------|
C#|---7---7----10------7------5-----3---5----3---2----0-------|
A |---7---7----10------7------5-----3---5----3---2----0-------|
E |---7---7----10------7------5-----3---5----3---2----0-------|
A |---7---7----10------7------5-----3---5----3---2----0-------|
E |-----------------------------------------------------------|

Solo: w/o slide 
E |-------------------------------------------------------|
C#|-------------------------------------------------------|
A |------------------10s9p0r-------10h12-10-10s12-10s9p0--|
E |--12~~12~~12~~12--------12-12-------------------------|
A |-------------------------------------------------------|
E |-------------------------------------------------------|

[ Tab from: http://www.guitartabs.cc/tabs/w/white_stripes/7_nation_army_open_a_tuning_tab.html ]
E |--------------------------------------------------------------|
C#|--------------------------------------------------------------|
A |-----------------10----10s9p0----------10h12-10-10s12-10s9p0--|
E |--12~~12~~12~~12----12-----------12-12------------------------|
A |--------------------------------------------------------------|
E |--------------------------------------------------------------|





E |--12r--12--12--15--12--12h15--14p0----12-12-15-17-15-15--|
C#|---------------------------------------------------------|
A |---------------------------------------------------------|
E |---------------------------------------------------------|
A |---------------------------------------------------------|
E |---------------------------------------------------------|


E |--17--15--14---12-----12-12-14-15-17-12---12r-14p12-14p12-12---------------|
C#|-------------------------------------------------------------11-10---------|
A |-------------------------------------------------------------------(12)p0--|
E |---------------------------------------------------------------------------|
A |---------------------------------------------------------------------------|
E |---------------------------------------------------------------------------|

E |-------------------------------------------------------------------|
C#|--10---10---10---10---10---10---10s12---12---12---12---12---12---12|
A |--10---10---10---10---10---10---10s12---12---12---12---12---12---12|
E |--10---10---10---10---10---10---10s12---12---12---12---12---12---12|
A |-------------------------------------------------------------------|
E |-------------------------------------------------------------------|


Lead bridge:
E |-------------------------------|
C#|-------------------------------|
A |-------------------------------|
E |-------------------------------|
A |-------------------------------|
E |-----0~~~~--------0~~~~~-------|


End with Chorus: end on this
E |------------------------------------------------------------|
C#|---2---/----7------(7)-------------------------------------|
A |---2---/----7------(7)-------------------------------------|
E |---2---/----7------(7)-------------------------------------|
A |---2---/----7------(7)-------------------------------------|
E |------------------------------------------------------------|




just listen to the record for the order, 
its not all to hard to work out, 
laters.
Comments