White Lion - Youre All I Need Chords & Tabs

 

Youre All I Need Chords & Tabs

White Lion Chords & Tabs

Version: 1 Type: Tab 2 ratings
1 star 2 stars 3 stars 4 stars 5 stars
comments

Youre All I Need Tab

   
You're All I Need
White Lion
Transcribed by: Paolo Keno "21" Quintana  (08:33am - 10:47am,04-26-04)



Intro:

e-------------------|---------------------|------------------|
b--------3--2-------|------0---2---2h3----|--------3--2------|
g----2--------2-----|--------0---0-----0--|----2--------2----|
d------0--------0---|---------------------|------0--------0--|
a-------------------|----2----------------|------------------|
e--2----------------|--3------------------|--2---------------|

e---------------------|------------------|-------------------|
b------0---2---2h3----|--------3--2------|------0-------2----|
g--------0---0-----0--|----2--------2----|--------0-------2--|
d---------------------|------0--------0--|------------2------|
a----2----------------|------------------|----2-----0--------|
e--3------------------|--2---------------|--3----------------|

e--------2-----2h3---2--|
b------3---3-------3----|
g----2-------2----------|
d--0--------------------|
a-----------------------|
e-----------------------|

Verse1&2:

e------------------|---------------------|--------3--2------|
b--------3--2------|------0---2---2h3----|-------------0----|
g----2--------2----|--------0---0-----0--|---------------0--|
d------0--------0--|---------------------|------2-----------|
a------------------|----2----------------|----2-------------|
e--2---------------|--3------------------|--0---------------|

e---------------0----|
b------2---3------3--|
g--------2---2-------|2x
d----2---------------|
a--0-----------------|
e--------------------|

e--------------3----|--------2---3-2h3p2----|then: e-------------------|
b------0---------3--|------3---3---------3--|      b------3-------2----|
g------------0------|----2------------------|2x    g--------0-------2--|
d----2--------------|--0--------------------|      d------------2------|
a--0-------2--------|-----------------------|      a----2-----0--------|
e--------3----------|-----------------------|      e--3----------------|

Chorus1:

e----------2------|-------------------|----------3--------|                      
b------3-----3----|--------3---2------|--------3---3------| 
g----2---2-----2--|----2---------2----|--------------0----| 
d--0--------------|------0---0-----0--|------0---------0--| 
a-----------------|-------------------|----2--------------| 
e-----------------|--2----------------|--3----------------|

e-----------0-------|----------2------|-------------------|
b------3--2---3--2--|------3-----3----|--------3---2------|
g------2---------2--|----2---2-----2--|----2---------2----|
d----2--------------|--0--------------|------0---0-----0--|
a--0----------------|-----------------|-------------------|
e-------------------|-----------------|--2----------------|

e----------0--------|-----------0------|----------3--------|--3--|
b------------0------|------2--2---3p2--|--------3---3------|--3--|
g--------0-----0----|------3-----------|--------------0----|--0--|
d------2---------2--|----2-------------|------0---------0--|--0--|
a----2--------------|--0---------------|----2--------------|--2--|
e--0----------------|------------------|--3----------------|--3--|

Chorus2:

e----------2------|-------------------|----------3--------|                      
b------3-----3----|--------3---2------|--------3---3------| 
g----2---2-----2--|----2---------2----|--------------0----| 
d--0--------------|------0---0-----0--|------0---------0--| 
a-----------------|-------------------|----2--------------| 
e-----------------|--2----------------|--3----------------|
[ Tab from: http://www.guitartabs.cc/tabs/w/white_lion/youre_all_i_need_tab.html ]
e-----------0-------|----------2p0------|-------------------|
b------3--2---3--2--|------3-------3----|--------3---2------|
g------2---------2--|----2---2-------2--|----2---------2----|
d----2--------------|--0----------------|------0---0-----0--|
a--0----------------|-------------------|-------------------|
e-------------------|-------------------|--2----------------|

e----------0--------|-----------0------|----------3--------|
b------------0------|------2--2---3p2--|--------3---3------|
g--------0-----0----|------3--------2--|--------------0----|
d------2---------2--|----2-------------|------0---------0--|
a----2--------------|--0---------------|----2--------------|
e--0----------------|------------------|--3----------------|

e-----------0--------|
b-------------2------|
g------2--------2----|
d----0---2--------2--|
a--0-----------------|
e--------------------|

Bridge:

B5  G  D  E5  

D  A5  D5  D  G  

D  E5  Em  D5  A5

Guitar Solo: 
*This needs fast finger picking*

e--3--3--3--5--7--5---5-5-------5-------------10h14p10-10-12-9-----------|
b--3--3--3----------------3-3-5-5-------10-12----------10------10\8p7h8--|
g--0----------------6--------------9/11----------------------------------|
d------------------------------------------------------------------------|
a------------------------------------------------------------------------|
e------------------------------------------------------------------------|

e----10-7h10p7---9---------------14^r-12-------/17-19---------------------|
b--7-----------7---10--------------------15-14--------20-19\---17^r15p14--|
g---------------------11p9h11-11^---------------------------14------------|
d-------------------------------------------------------------------------|
a-------------------------------------------------------------------------|
e-------------------------------------------------------------------------|

e--------------------------------15-17-17^r17--|
b--12---14-14^r-10h14p10\8---/15---------------|
g----------------------------------------------|
d----------------------------------------------|
a----------------------------------------------|
e----------------------------------------------|

Repeat cho.1

Outro:

e--------2p0------|----------0--------|--------3-5p3------|
b----3-------3----|--------1---1------|------3-------3----|
g------2-------2--|------2-------2----|----4-----------4--|
d--0--------------|----2-----------2--|--5----------------|
a-----------------|--0----------------|-------------------|
e-----------------|-------------------|-------------------|


e--------3-5p3------|--------2h3-2----|-----|----------2h3p2-2--|--2--|
b------3-------3----|------3-------3--|--2--|------3------------|--3--|
g----3-----------3--|----2------------|--2--|----2---2----------|--2--|
d--5----------------|--0--------------|--2--|--0----------------|--0--|
a-------------------|-----------------|--0--|-------------------|-----|
e-------------------|-----------------|-----|-------------------|-----|

This song is dedicated to my labs Kristel. I love you so much! There's
No words that can really describe my love for you. I love you so so so much my labs!

     
Paolo
                   A U G U S T
          __________           _______
         |          \         |       |
         |_______    \        |__     |
                 \    \          |    |
                  \    \         |    |
                   \    \        |    |     
                   /    /        |    |
                  /    /         |    | 
                 /    /          |    |   
                /    /           |    |
               /    /            |    |
              /    /             |    |
             /    /              |    |
            /    /               |    |    
           /    /                |    |
          /    /___________      |    |  
         |                |      |    |
         |________________|      |____| 
                                       
                      2 0 0 3

































Comments