Whind Of Change - My Only Friend Chords & Tabs

 

My Only Friend Chords & Tabs

Whind Of Change Chords & Tabs

Version: 1 Type: Tab 0 ratings
1 star 2 stars 3 stars 4 stars 5 stars
comments

My Only Friend Tab

Whind of Change
 ďMy only friendĒ

Intro x2                                  (Play last time)
E--------------------|--------------------|--0-|
B--------------------|--------------------|--0-|
G------0-----0-----0-|------0-----0-----0-|--0-|
D----5-----7-----9---|----9-----7-----5---|----|
A--3-----5-----7-----|--7-----5-----3-----|----|
E--------------------|--------------------|----|

Verse			                    (Play last time)
E--------------------|--------------------|-0-----|
B--------------------|--------------------|---0---|
G------0-----0-----0-|------0-----0-----0-|-----0-|
D----5-----7-----9---|----9-----7-----5---|-------|
A--3-----5-----7-----|--7-----5-----3-----|-------|
E--------------------|--------------------|-------|

1. Your face, lights up the dark
   Everyday, I want to start
   Over again, my only friend

2. Itís storming, in my life
   Still canít, find the light
   That you send, my only friend

Pre-chorus
E-------|-------|-------|----|
B-------|-------|-------|----|
G-------|-------|-------|----|
D--5--5-|--9--9-|--7--7-|--5-|
A--3--5-|--7--0-|--5--0-|--3-|
E--0--3-|--7--0-|--5--0-|--3-|
[ Tab from: http://www.guitartabs.cc/tabs/w/whind_of_change/my_only_friend_tab.html ]
   You paint me pictures of, thoughts in my head
   To release me from this, dream amongst my bed
   I just wish Iíve known all the, things unsaid
   Canít comprehend where this, road has me lead

Chorus
E-------|-------|-------|-------|-------|
B-------|-------|-------|-------|-------|
G-------|-------|-------|-------|-------|
D--2--0-|--2--0-|--2--0-|--2--0-|-2--4--|
A--2--2-|--2--0-|--2--2-|--2--0-|-2--5--|
E--0--3-|--0--1-|--0--3-|--0--1-|-0--0--|

   Where this road has me lead
   Just wish I could mend
   All the things in my head
   Just donít know where
   This road has me lead

Verse			                    (Play last time)
E--------------------|--------------------|-0-----|
B--------------------|--------------------|---0---|
G------0-----0-----0-|------0-----0-----0-|-----0-|
D----5-----7-----9---|----9-----7-----5---|-------|
A--3-----5-----7-----|--7-----5-----3-----|-------|
E--------------------|--------------------|-------|

3. Your voice never, goes unheard
   Youíre everywhere, everywhere I turn
   Wish you werenít pretend, my only friend

4. Its storming again, all in spite
   You might be, might be right 
   Wanted a hand to lend, my only friend

Pre-chorus

Chorus
Comments