Whind Of Change - I See You Chords & Tabs

 

I See You Chords & Tabs

Whind Of Change Chords & Tabs

Version: 1 Type: Tab 0 ratings
1 star 2 stars 3 stars 4 stars 5 stars
comments

I See You Tab

   
Whind of change
I see you



Intro
E---0-2---2---0-|---0---2-3-3s5-3-2---3h5-2--------0-5-2---|-----------|
B-3-----3---3---|-3-----------------3-------3--3-2-------3-|-2-3-3s5-3-|
G---------------|------------------------------------------|-----------|
D---------------|------------------------------------------|-----------|
A---------------|------------------------------------------|-----------|
E---------------|------------------------------------------|-----------|

Verse
E--2----5--------|--3-----------2---|
B--3----3--------|--3-----------3---|
G--2----2--------|--2-----------2---|
D----------------|------------------|
A----------------|------------------|
E----------------|------------------|
1. I see you            In a different way  
2. When you donít       It comes out the wrong way  
3. I hope you know      Itís you I praise 

Chorus
I see you             You see me
I need you            And you need me


4. I hear you            In a different way
5. And waste some time   With me
6  My love is something  You can see
Chorus
[ Tab from: http://www.guitartabs.cc/tabs/w/whind_of_change/i_see_you_tab.html ]
E-----------------------|--3------------------|
B--1--------------------|--3------------------|
G--0--------------------|--0------------------|
D--2--------------------|--0------------------|
A--3--------------------|--2------------------|
E-----------------------|--3------------------|
1. Youíre always holding back     What you wanted to say
2. You count the hours            Not the days
3. I wouldnít have it             Any other way
Chorus
I just want us                To be free                   
Why can we can be             Who we want to be

4. I need you so                  Why donít you stay
5. Then Iíll show you             Who I can be
6. When I need you I              Hope your there for me
Chorus

Solo
   D                        C                 G
E----0-2---5---2---0----0-|-----------------|------------3---|
B--3-----3---3---3----3---|-1---------3-----|--------3-----3-|
G-------------------------|-------0-----0---|----0-----0-----|
D-------------------------|---2-----2-----2-|------0---------|
A-------------------------|-----3-----------|----------------|
E-------------------------|-----------------|--3-------------|

Chorus
Comments