While She Sleeps - Hearts Aside Our Horses Chords & Tabs

 

Hearts Aside Our Horses Chords & Tabs

While She Sleeps Chords & Tabs

Version: 5 Type: Tab 0 ratings
1 star 2 stars 3 stars 4 stars 5 stars
comments

Hearts Aside Our Horses Tab

   
-------------------------------------------------------------------------------
                            Hearts Aside Our Horses - While She Sleeps
-------------------------------------------------------------------------------
Tabbed by:Jayeahyeah
Email:jonny.s1@gmx.de

this is my first tab so be gentle :P and email me if you got some suggestions for improv 

Tuning:Drop C#

Intro 0:00
eb|-----------9\5---5-----------0---------------------------------------------|
Bb|------9-10-----9---9-p-7---------------------------------------------------|
Gb|-6/11--------------------6\2-----2---------6-------3/6-----------6---------|
C#|-------------------------------6---4-2-4/7---7-4\2-----7-6-4-6-7-----------|
Ab|---------------------------------------------------------------------------|
C#|---------------------------------------------------------------------------|

eb|-----------9\5---5-----------0-----------------------------9---5-----------|
Bb|---10-9-10-----9---9-p-7-------------------------------------7---7---------|
Gb|-------------------------6\2-----2---------6-7-------9-6-7-----------------|
C#|-------------------------------6---4-2-4/7-----7-6-7-----------------------|
Ab|---------------------------------------------------------------------------|
C#|---------------------------------------------------------------------------|

4x Verse:

eb|-----------9\5---5-----------0---------------------------------------------|
Bb|---10-9-10-----9---9-p-7---------------------------------------------------|
Gb|-------------------------6\2-----2---------6-------3/6-----------6---------|
C#|-------------------------------6---4-2-4/7---7-4\2-----7-6-4-6-7-----------|
Ab|---------------------------------------------------------------------------|
C#|---------------------------------------------------------------------------|

eb|-----------9\5---5-----------0-----------------------------9---5-----------|
Bb|---10-9-10-----9---9-p-7-------------------------------------7---7---------|
Gb|-------------------------6\2-----2---------6-7-------9-6-7-----------------|
C#|-------------------------------6---4-2-4/7-----7-6-7-----------------------|
Ab|---------------------------------------------------------------------------|
C#|---------------------------------------------------------------------------|
(2nd guitar plays power chords on 0---2-4---2-0--- and so on...)

2x Theme A 0:30 :
(both guitars)
eb|---------------------------------------------------------------------------|
Bb|---------------------------------------------------------------------------|
Gb|---------------------------------------------------------------------------|
C#|---------------------------------------------------------------------------|
Ab|-----------------------------2---------------------------------2-----------|
C#|-4-4---4-4-4---4-7-4-7-4-6-7---6---4-4---4-4-4---4-7-4-7-4-6-7---6---------|

eb|--------------0--------------------------0---------------------------------|
Bb|----------------0--------------------------0-------------------------------|
Gb|------------------2---2----------------------2-----------------------------|
C#|--------------------6---6----------------------6---------------------------|
Ab|---------------------------------------------------------------------------|
C#|-0-0---0-0-------------------0-0---0-0-----------2-------------------------|

*pickslide*

2x Theme B 0:53:
(both guitars)
(not sure about the exact timing of the palm mutes)
eb|---------------------------------------------------------------------------|
Bb|---------------------------------------------------------------------------|
Gb|------------------------------------------------------5--------------------|
C#|------3-------3-----------------------------------3-------3-5-3------------|
Ab|-5------7-5-------5------5-7-8-5----------------7---7---7------------------|
C#|---0-0------0---0---7-10----------0---0---0---0----------------------------|
                                     ^
                      these might be on the offbeat, somehow weird, might just be me :P
eb|---------------------------------------------------------------------------|
Bb|---------------------------------------------------------------------------|
Gb|---------------------------------------------------------------------------|
C#|------3-------3-------------------------------------3-------5--------------|
Ab|-5------7-5-------5------5-7-8-5----------------7-7---7-8-8---8------------|
C#|---0-0------0---0---7-10----------0---0---0---0----------------------------|

now some chords 1:12
2x

eb|---------------------------------------------------------------------------|
Bb|---------------------------------------------------------------------------|
Gb|---------------------------------------------------------------------------|
C#|-3----3--2--3----8--7------------------------------------------------------|
Ab|-7----3--3--3----5--5---5--------------------------------------------------|
C#|-0----3--2--3----5--5---5-h-8-p-7------------------------------------------|

"pre pre" choros 1:31
 listen to the song and get the timing of the palmmutes right!

eb|---------------------------------------------------------------------------|
Bb|---------------------------------------------------------------------------|
Gb|---------------------------------------------------------------------------|
C#|-----------------------------------------------------5---------------------|
Ab|--------------------------------------------------7------------------------|
C#|-0-0-0--0--0-3-0-0-2-0-0-2/3-0-0---0--0--0-0---3-------0-0---0--0--0-0-----|

eb|---------------------------------------------------------------------------|
Bb|---------------------------------------------------------------------------|
Gb|---------------------------------------------------------------------------|
C#|------------------------------------7--------------------------------------|
Ab|--------------------------------10-----------------------------------------|
C#|-0--0--0--0-0----0--0--0-0---7--------0-0---0--0--0--0-0---0--0--0---------|

2nd Guitar plays these chords until the end of the solo 1:53

eb|---------------------------------------------------------------------------|
Bb|------------------------------------8--------------------------------------|
Gb|-9----------------------------------9--------------------------------------|
C#|-x----------------------------------7--------------------------------------|
Ab|-7----------------------------------7--------------------------------------|
C#|---------------------------------------------------------------------------|
[ Tab from: http://www.guitartabs.cc/tabs/w/while_she_sleeps/hearts_aside_our_horses_tab_ver_5.html ]
eb|---------------------------------------------------------------------------|
Bb|-8----------------------------------10-------------------------------------|
Gb|-9----------------------------------11-------------------------------------|
C#|-10---------------------------------12-------------------------------------|
Ab|-7----------------------------------9--------------------------------------|
C#|---------------------------------------------------------------------------|

Pre solo 1st guitar 2:02
2x

eb|-17-------17-------17-------17---13-17-------17-------17-------17----------|
Bb|----15-------15-------15------15-------15-------15-------15-------15-------|
Gb|-------14-------14-------14---------------14-------14-------14-------------|
C#|---------------------------------------------------------------------------|
Ab|---------------------------------------------------------------------------|
C#|---------------------------------------------------------------------------|

solo 2:11
2x

eb|-12-13-12----------12-13-12-----------------------------13----13h15p13----------17----------|
Bb|----------13-10-13------------13-10----10---------15-17----15----------15-13-15----15-13-15-|
Gb|------------------------------------12----12-10-9-------------------------------------------|
C#|--------------------------------------------------------------------------------------------|
Ab|--------------------------------------------------------------------------------------------|
C#|--------------------------------------------------------------------------------------------|

eb|-------8----8h10p8---------12---------13-----------------------------------|
Bb|-\8-10---10--------10-8-10----10-8-10----10-8-10-8-6-5b--------------------|
Gb|---------------------------------------------------------------------------|
C#|---------------------------------------------------------------------------|
Ab|---------------------------------------------------------------------------|
C#|---------------------------------------------------------------------------|

some palm muted shredding 2:32
 you'll figure out the rhythm best if you listen to the song 

eb|---------------------------------------------------------------------------|
Bb|---------------------------------------------------------------------------|
Gb|---------------------------------------------------------------------------|
C#|---------------------------------------------------------------------------|
Ab|---------------------------------------------------------------------------|
C#|--0-0-0-0 and so on--------------------------------------------------------|

2:42
 2x
eb|-----0-0-0----------------0-0-0-----0-0-0----------------------------------|
Bb|-----6-6-6----------------6-6-6-----6-6-6----------------------------------|
Gb|-----9-9-9----------------9-9-9-----9-9-9---------------12/-14-14-14-------|
C#|-----0-0-0----------------0-0-0-----0-0-0----------------x--x--x--x--------|
Ab|--------------------------------------------------------10/-12-12-12-------|
C#|-000-------0-0-0--000-000-------000-------0-0-0-000-000--------------------|

eb|---------------------------------------------------------------------------|
Bb|---------------------------------------------------------------------------|
Gb|-----10-10-10--------------10-10-10--7-7-7---------------------------------|
C#|-----8--8--8---------------8--8--8---5-5-5---------------------------------|
Ab|-----8--8--8---------------8--8--8---5-5-5-------------------5-------------|
C#|-888-8--8--8-8-8-8-888-888-8--8--8---5-5-5-5-5-8-8-8-8-8-5-7---------------|


3:03
eb|-------------------------------------------------------0000---0000---------|
Bb|-------------------------------------------------------6666---6666---------|
Gb|-------------------------------------------------------9999---9999---------|
C#|------------0------0-----------0-----0-----------0-----0000---0000---------|
Ab|------------0------0-----------0-----0-----------0-------------------------|
C#|-0------0-0-0--0-0-0-------0-0-0-0-0-0-------0-0-0-0-0---------------------|


3:11
again odd palm muting, listen and try, you'll get it ;)
2x

eb|---------------------------------------------------------------------------|
Bb|---------------------------------------------------------------------------|
Gb|---------------------------------------------------------------------------|
C#|---------------------------------------------------------------------------|
Ab|---------------------------------------------------------------------------|
C#|-0-0-0-000--0-0 yadda yadda------------------------------------------------|

ending 3:27
2nd guitar 2x folling chords 
eb|---------------------------------------------------------------------------|
Bb|---------------------------------------------------------------------------|
Gb|---------------------------------------------------------------------------|
C#|-10-----14------17------17(or 14)------------------------------------------|
Ab|-8------12------15------15-------------------------------------------------|
C#|-8------12------15------14-------------------------------------------------|

1st guitar: honestly i have no idea whats he playing, personally i vamp this part :)
to give you some idea of what i think he might play:
eb|---------------------------------------------------------------------------|
Bb|---------------------------------------------------------------------------|
Gb|---------------------------------------------------------------------------|
C#|-12\--15\--19\--17\15\14\---12\--15\--19\--17\15\14\-----------------------|
Ab|---------------------------------------------------------------------------|
C#|---------------------------------------------------------------------------|

eb|---------------------------------------------------------------------------|
Bb|---------------------------------------------------------------------------|
Gb|---------------------------------------------------------------------------|
C#|-3p0-2p0-3p0-5p0-3p0-2p0---\3-2---0----------------------------------------|
Ab|--------------------------------3------------------------------------------|
C#|---------------------------------------------------------------------------|

eb|---------------------------------------------------------------------------|
Bb|---------------------------------------------------------------------------|
Gb|---------------------------------------------------------------------------|
C#|---------------------------------------------------------------------------|
Ab|-3h5-3h5-3h5-3h5-3h5-------------------------------------------------------|
C#|---------------------------------------------------------------------------|
and wild combinations of those ;)

have fun


************************************

| /   slide up
| \   slide down
| h   hammer-on
| p   pull-off
| ~   vibrato
| +   harmonic
| x   Mute note
| b   Bend
| pb  Pre-bend
| br  Bend release
| pbr Pre-bend release
| brb Bend release bend

************************************
Comments