Wheatus - Truffles Chords & Tabs

 

Truffles Chords & Tabs

Wheatus Chords & Tabs

Version: 1 Type: Tab 0 ratings
1 star 2 stars 3 stars 4 stars 5 stars
comments

Truffles Tab

Standard tuning
This is the correct way (as Brendan plays it) to play Truffles by Wheatus

Intro-

-|------------
-|------2-----
-|----1-2-1---
-|--4-2-2-2-4-
-|--4-2---2-4-
-|--2-------2-

and then the main riff is just upwards strumming, listen to the track to get it right

-|-----------------------------------
-|-----------------------------------
-|-----------------------------------
-|--7--7--7--7--7--7--7--7--7--7--7--
-|--7--7--7--7--7--7--7--7--7--7--7--
-|--5--5--5--5--5--5--5--5--5--5--5--

then-

-|----------------------------------
-|------2-----2---2-----------------
-|----1-2-1---2-1-2-----------------
-|--4-2-2-2-4-2-2-2-----------------
-|--4-2---2-4---2-------------------
-|--2-------2-----------------------

and the chorus(with Distortion) is-

-|------------
-|----2-----2-
-|--1-2-1---2-
-|--2-2-2-4-2-   X2
-|--2---2-4---
-|--------2---

-|------------------
-|------------------
-|------------------
-|--7-7-7-7-7-7-7-7-  x2
-|--7-7-7-7-7-7-7-7-
-|--5-0-5-0-5-0-5-0-

then back to the verse without Distortion-

-|-----------------------------------
-|-----------------------------------
-|-----------------------------------
-|--7--7--7--7--7--7--7--7--7--7--7--
-|--7--7--7--7--7--7--7--7--7--7--7--
-|--5--5--5--5--5--5--5--5--5--5--5--

[ Tab from: http://www.guitartabs.cc/tabs/w/wheatus/truffles_tab.html ]
-|--------------
-|------2-----2-
-|----1-2-1---2-
-|--4-2-2-2-4-2-
-|--4-2---2-4---
-|--2-------2---


-|-----------------------------------
-|-----------------------------------
-|-----------------------------------
-|--7--7--7--7--7--7--7--7--7--7--7--
-|--7--7--7--7--7--7--7--7--7--7--7--
-|--5--5--5--5--5--5--5--5--5--5--5--


-|------------------2---------------
-|------2-----2---2-3-2---2---------
-|----1-2-1---2-1-2-2-2-1-2---------
-|--4-2-2-2-4-2-2-2---2-2-2---------
-|--4-2---2-4---2-------2-----------
-|--2-------2-----------------------

then back to the chorus with distortion-


-|------------
-|----2-----2-
-|--1-2-1---2-
-|--2-2-2-4-2-   X3
-|--2---2-4---
-|--------2---

then the solo with distortion-

-|-------------------------------------------------------------------------------------------------
-|-------------------------------------------------------------------------------------------------
-|--7-7----------------------7-7----------------------7-7------------------------------------------
-|--7-7-4-4-4-4-4-4-4-4-4-7--7-7-4-4-4-4-4-4-4-4-4-7--7-7-4-4-4-4-4-4-4-4-4-7-9-9-9-9-12-12-12-12--
-|--5-5-4-4-4-4-4-4-4-4-4-7--5-5-4-4-4-4-4-4-4-4-4-7--5-5-4-4-4-4-4-4-4-4-4-7-9-9-9-9-12-12-12-12--
-|------0-2-0-2-2-2-2-0-2-5------0-2-0-2-2-2-2-0-2-5------0-2-0-2-2-2-2-0-2-5-7-7-7-7-10-10-10-10--


The after the intro/outro beats its(still with distortion)-

-|---------
-|------2--
-|----1-2--
-|--4-2-2--
-|--4-2----
-|--2------
Comments