Wheatus - Teenage Dirtbag Chords & Tabs

 

Teenage Dirtbag Chords & Tabs

Wheatus Chords & Tabs

Version: 1 Type: Tab 0 ratings
1 star 2 stars 3 stars 4 stars 5 stars
comments

Teenage Dirtbag Tab

TEENAGE DIRTBAG by Wheatus
here's that song, all the parts are there and I'm very certain
that they're all right. If you do find a mistake let me know.
You can follow the song to work out what goes where.

Intro:
e-------------------------------------|
b--------5-------5-------5-------5----|(x2)
g--------4-------4-------4-------4---*|
d------------------------------------*|
a----------2-2-------------0-0--------|
E-\0-0-------------0-0----------------|

Verses:
e-------------------------------------|
b--------5-------5-------5-------5----|(x3)
g--------4-------4-------4-------4---*|
d------------------------------------*|
a----------2-2-------------0-0--------|
E--0-0-------------0-0----------------|

e-------------------------------------|
b--------5-------5-------5-------5----|(x2)
g--------4-------4-------4-------4---*|
d------------------------------------*|
a--4-4-----0-0-----2-2-----2-2--------|
E-------------------------------------|
[ Tab from: http://www.guitartabs.cc/tabs/w/wheatus/teenage_dirtbag_tab.html ]
Chorus:                                     Chorus End:
e-------------------------------------|     e--------------|
b-------------------------------------|(x4) b--------------|
g---------2-2----4-4-----------------*|     g--------------|
d--2-2----2-2----4-4------6----------*|     d--------------|
a--2-2----0-0----2-2----4------6------|     a----7----9----|
E--0-0-----------------------4--------|     E--5----7------|

Bridge: (play through 2 times)
e----------------|     e-----------------------|
b----------------|(x3) b-----------------------|
g---------4-2---*|     g-----------------------|
d--2-2----4-2---*|     d----6------------------|
a--2-2----2-0----|     a--4------6----7----9---|
E--0-0-----------|     E-------4----5----7-----|

End:
e----------------------------------------------------------|
b----------------------------------------------------------|
g------xx-4-4-xx-----xx----------------xx-4-4-xx-----xx----|
d--2-2-xx-4-4-xx-2-2-xx-7-777-666--2-2-xx-4-4-xx-2-2-xx----|
a--2-2-xx-2-2-xx-2-2-xx-7-777-666--2-2-xx-2-2-xx-2-2-xx----|
E--0-0-----------0-0----5-555-444--0-0-----------0-0-------|

e--------------------0--------|
b--------------------5--------|
g--------------------4--------|
d--------------------2--------|
a--------------------2--------|
E--5--4--2-h-4--2----0--------|

Transcribed by Frizzle
Comments