Wheatus - Punk Ass Bitch Chords & Tabs

 

Punk Ass Bitch Chords & Tabs

Wheatus Chords & Tabs

Version: 3 Type: Tab 0 ratings
1 star 2 stars 3 stars 4 stars 5 stars
comments

Punk Ass Bitch Tab

WHEATUS — PUNK ASSED BITCH 
Tabbed by revo
 

Intro:

E ---------------------------------
B ---------------------------------
G --9--9--9--9--9--9---7--7---(7/9)
D --9--9--9--9--9--9---7--7---(7/9)
A --7--7--7--7--7--7---5–-5---(5/7)
E ---------------------------------



Verse=Chorus:
[ Tab from: http://www.guitartabs.cc/tabs/w/wheatus/punk_ass_bitch_tab_ver_3.html ]
E ---------------------------------
B ---------------------------------
G --9--9--9--9---------------------
D --9--9--9--9---9--9--9--9--------
A --7--7--7--7---9--9--9--9--------
E ---------------7--7--7--7--------


B ---------------------------------
B ---------------------------------
B ---------------------------------
D -11--11--11--11---7--7--7--7-----
A -11--11--11--11---7--7--7--7-----
E --9---9---9---9---5--5--5--5-----
Comments