Wheatus - Punk Ass Bitch Chords & Tabs

 

Punk Ass Bitch Chords & Tabs

Wheatus Chords & Tabs

Version: 2 Type: Tab 0 ratings
1 star 2 stars 3 stars 4 stars 5 stars
comments

Punk Ass Bitch Tab

Wheatus - Punk @ss B*tch
From Wheatus
by Chris Ryan  CaptainSucrose@aol.com

intro:
e --------------------
b --------------------
g -11-11-11--9-11-----
d -11-11-11--9-11-----
a --9--9--9--7--9-----
E --------------------

[ Tab from: http://www.guitartabs.cc/tabs/w/wheatus/punk_ass_bitch_tab_ver_2.html ]
verses: muted
e --------------------------
b --------------------------
g -11-11-11-11--------------
d -11-11-11-11-11-11-11-11--
a --9--9--9--9-11-11-11-11--
E --------------9--9--9--9--

e -----------------------
b -----------------------
g -----------------------
d -13-13-13-13--9-9-9-9--
a -13-13-13-13--9-9-9-9--
E -11-11-11-11--7-7-7-7--

Chorus is the same chords as the verses
Comments