Wheatus - Mr Brown Chords & Tabs

 

Mr Brown Chords & Tabs

Wheatus Chords & Tabs

Version: 1 Type: Tab 0 ratings
1 star 2 stars 3 stars 4 stars 5 stars
comments

Mr Brown Tab

   
Wheatus
MR. BROWN		TABBED BY MATTHEW JOHNSTON

This song kicks ass! One of the best on the album. This is one of my first tabs
but I have been playing guitar for ages and have a fairly musical ear so this
tab should be correct. If it is and you want to tell me it is or 
congratulate me or whatever, write to orig_prankster@hotmail.com

I have given tab and chords over the lyrics. The chords over the lyrics 
are there to show when the chord changes.

KEY

\  =  Slide (to an open string unless otherwise stated)
X  =  Lift the fretting hand off the strings slightly. It produces a percusive click.
pm-----  =  Palm Mute the chords shown above it.


INTRO  X2
             
|--------------------------------------------------------------|
|--------------------------------------------------------------|
|--------------------------7-6----------------------------11-9-|
|-7-7-7--XXX---X-9-X-9---9-7-6---7-7-7--XXX---X-9-X-9---9-11-9-|
|-7-7-7--XXX---X-9-X-9---9-5-4---7-7-7--XXX---X-9-X-9---9--9-7-|
|-5-0-5\-XXX---X-7-X-7---7-------5-0-5\-XXX---X-7-X-7---7------|


VERSE
  A         D C#   A         F# E
|---------------------------------|
|---------------------------------|
|-----------7-6--------------11-9-|
|-7-7-7-----7-6----7-7-7-----11-9-|  X1
|-7-7-7-----5-4----7-7-7------9-7-|
|-5-0-5\-----------5-0-5\---------|

  A         D C#   A 
|--------------------------|
|--------------------------|
|-----------7-6------------|
|-7-7-7-----7-6----7-7-7---|  X1
|-7-7-7-----5-4----7-7-7---|
|-5-0-5\-----------5-0-5\--|


CHORUS

  D A D A   F# E
|----------------|
|----------------|
|-7---7-----11-9-|
|-7-7-7-7---11-9-|   X3
|-5-7-5-7----9-7-|
|---5---5--------|

 C#  B  D C#  B  A
|-------------------|
|-------------------|
|-6--4--7--6--4-----|
|-6--4--7--6--4--7--| X1
|-4--2--5--4--2--7--|
|----------------5\-|


INTRO X1

VERSE

CHORUS


SOLO (This is the only part I'm no sure about. The guy uses 
a phaser or flanger here)

Guitar 1: SOLO
Guitar 2: Verse Palm Muted

|-------------------------------------------------|
|---5--7-5----5\---------------------5--7-5-------|
|-7---------7-------5--7-5----5\---7---------5-7\-|
|-----------------7---------7---------------------|
|-------------------------------------------------|
|-------------------------------------------------|

[this bit played clean]

|-----------------------|
|-----------------------|
|-----------------------|
|-----------------------|
|-0-5-7-7/9p7--5-7--0-5-|
|-----------------------|

BRIDGE

|---------------------|
|---------------------|
|-7-7-7-7----7-7-11-9-|
|-7-7-7-7----7-7-11-9-|
|-5-4-5-4----5-4--9-7-|
|---------------------|

CHORUS X8

END
[ Tab from: http://www.guitartabs.cc/tabs/w/wheatus/mr_brown_tab.html ]
|--------|
|--------|
|--------|
|-7-7-7--|
|-7-7-7--|
|-5-0-5\-|A                                D   C#
__Man I think it's just a little sleazy. 
A					  F#  E
__You said you was like butter but you're cheesy. 
A				    D         C#
__To treat me like I'm spinner bait you can't wait. 
A
__Go fish off some other dock.
 

D        A      D            A
Hey, Mr. Brown, don't have a cow.
     F#    E
Just compensate me!
D        A      D            A
Hey, Mr. Brown, don't have a cow.
     F#    E
Just compensate me!
D        A      D            A
Hey, Mr. Brown, don't have a cow.
     F#    E
Just compensate me!
C#           B       D     C# B  A
You're gonna have to prove it to me.


A                               D    C# 
__If I don't call you back your head spins. 
A                                            F# E
__If I told you what I think you'd shit your linens.
A                               D       C#
__"It's just another interview, nothing new!" 
A        
__But they don't even know my name.


D        A      D            A
Hey, Mr. Brown, don't have a cow.
     F#    E
Just compensate me!
D        A      D            A
Hey, Mr. Brown, don't have a cow.
     F#    E
Just compensate me!
D        A      D            A
Hey, Mr. Brown, don't have a cow.
     F#    E
Just compensate me!
C#           B       D     C# B  A
You're gonna have to prove it to me.


D        A      D            A
Hey, Mr. Brown, don't have a cow.
     F#    E
Just compensate me!
D        A      D            A
Hey, Mr. Brown, don't have a cow.
     F#    E
Just compensate me!
D        A      D            A
Hey, Mr. Brown, don't have a cow.
     F#    E
Just compensate me!
D        A      D            A
Hey, Mr. Brown, don't have a cow.
     F#    E
Just compensate me!
D        A      D            A
Hey, Mr. Brown, don't have a cow.
     F#    E
Just compensate me!
D        A      D            A
Hey, Mr. Brown, don't have a cow.
     F#    E
Just compensate me!
C#           B       D     C# B  A
You're gonna have to prove it to me.
Comments