Wheatus - Leroy Chords & Tabs

 

Leroy Chords & Tabs

Wheatus Chords & Tabs

Version: 3 Type: Tab 0 ratings
1 star 2 stars 3 stars 4 stars 5 stars
comments

Leroy Tab

Well here it is. It sounds just like the track! I use the Acoustic Simulator on my Zoom 505 to get the right sound!
[ Tab from: http://www.guitartabs.cc/tabs/w/wheatus/leroy_tab_ver_3.html ]
Intro
e| ---------------------------------------------------------------- |
B| ---------------------------------------------------------------- |
G|.----------------------------------------------------------------.|
D|.-7---7---7---7---7---7-------4---4---4---4---2---2---2---2---2--.|
A| -5---5---5---5---5---5---0---2---2---2---2---0---0---0---0---0---|
E| ---------------------------------------------------------------- |

Chorus
e| -2---2---2-2-2---------3------3-3-3 |-2---2-2-2-2-2-2-----------------|
B| -3---3---3-3-3---------3------3-3-3 |-3---3-3-3-3-3-3-----------------|
G|.-2---2---2-2-2-2---2---0------0-0-0.|-2---2-2-2-2-2-2-----------------|
D|.-0---0---0-0-0-2---2---0------0-0-0.|-0---0-0-0-0-0-0-----------------|
A| ---------------0---0--------------- |---------------------------------|
E| -----------------------3------3-3-3 |------------------1---2---3---4--|
Comments