Wheatus - Leroy Chords & Tabs

 

Leroy Chords & Tabs

Wheatus Chords & Tabs

Version: 1 Type: Tab 0 ratings
1 star 2 stars 3 stars 4 stars 5 stars
comments

Leroy Tab

wheatus leroy.
Tabbed by shaun  iLiquido@hotmail.com.
  


hey a different wheatus tab. took me 4 hours to work out, enjoy, it is very easy.
i do not know the lead if someone knows mail me at    losixx4@mail.com
how u want to sing this depends on how u play this. u can start on fret 5 or 7, just shift everything accordingly.i'd definately start on 7



this is the verse bit
---5-----2----0------------------------------
---7-----4-----2-----------------------------
---7-----4-----2-----------------------------
---5-----2-----x-----------------------------
---5-----2-----x-----------------------------
---5-----2-----x----------------------------- 


u know he said shake............
[ Tab from: http://www.guitartabs.cc/tabs/w/wheatus/leroy_tab.html ]
---5-----0-----2-----0-----------------------
---7-----2-----4-----2-----------------------
---7-----2-----4-----2-----------------------
---5-----x-----2-----x-----------------------
---5-----x-----2-----x-----------------------
---5-----x-----2-----x-----------------------



chorus:  (some distortion.)

leroy is my mojo man................

---5-----7-----5-----------------------------
---7-----7-----5-----------------------------
---7-----9-----7-----------------------------
---5-----9-----7-----------------------------
---5-----9-----6-----------------------------
---5-----7-----5-----------------------------


suggestions or complaints forwarded to

losixx4@mail.com

p.s.- mail me if u use this


| About Site | Disclaimer | Suggest 
 
:: Ultimate Guitar Archive :: 
http://www.ultimate-guitar.com 

Comments