Wheatus - Id Never Write A Song About You Chords & Tabs

 

Id Never Write A Song About You Chords & Tabs

Wheatus Chords & Tabs

Version: 2 Type: Tab 0 ratings
1 star 2 stars 3 stars 4 stars 5 stars
comments

Id Never Write A Song About You Tab

I'D NEVER WRITE A SONG ABOUT YOU


-|------0--0-0--0---------0--------0------------------------------------------
-|------0--0--0---0-------0--------0------------------------------------------
-|-----------------------------------------------------------------------------
-|-----------------------------------------------------------------------------
-|------------------4-4------2-2------------------------------------------------
-|--0-0------------------------------------------------------------------------
 INTRO & VERSES:  4 times for intro. Another 4 times for verse.               

-|----------------------------0---0----------------------------0---0-----------
-|----------------------------0---0----------------------------0---0-----------
-|-----------------------------------------------------------------------------
-|--2-2-2-2-4-4-4-4-6-6-6-6-7---9---2-22-----4-4-----6-6-----7---9-------------
-|--2-2-2-2-4-4-4-4-6-6-6-6-7---9---2-22-----4-4-----6-6-----7---9-------------
-|--0-0-0-0-2-2-2-2-4-4-4-4-5---7---0-00-----2-2-----4-4-----5---7-------------
 CHORUS:  In power chords. Play 2 times.                                      

-|------0--0-0----------0--0-0--------------0--0-0----------0-00---------------
-|------0--0-0----------0--0-0--------------0--0-0----------0-00---------------
-|-----------------------------------------------------------------------------
-|-----------------------------------------------------------------------------
-|-------------4--2--------------2-4p2-------------4--2------------------------
-|--0-0-------------0-0--------4--------0-0-------------0-0--------------------
 BRIDGE:  Use distortion. Strum the last 2 notes. Play once.                  

-|------0--0-0--0-------0--0-----0--0------------------------------------------
-|------0--0-0----0-----0--0-----0--0------------------------------------------
-|-----------------------------------------------------------------------------
-|-----------------------------------------------------------------------------
-|------------------4-4------2-2-----------------------------------------------
-|--0-0------------------------------------------------------------------------
 VERSE:  Same as before. Play 4 times. Then play chorus and bridge as above.  

-|-----------------------------------------------------------------------------
-|-----------------------------------------------------------------------------
-|-----------------------------------------------------------------------------
-|--4-4-----7-7-----2-2-------6------------------------------------------------
-|--4-4-----7-7-----2-2-----4-----6--------------------------------------------
-|--2-2-----5-5-----0-0---------4----------------------------------------------
 BRIDGE 2:  Play 3 times then the forth time play section below               
[ Tab from: http://www.guitartabs.cc/tabs/w/wheatus/id_never_write_a_song_about_you_tab_ver_2.html ]
-|-----------------------------------------------------------------------------
-|-----------------------------------------------------------------------------
-|-----------------------------------------------------------------------------
-|--4-4-----7-7-----9-9-9-9-9-9-9-9-9-99-9-9-9-9-------------------------------
-|--4-4-----7-7-----9-9-9-9-9-9-9-9-9-99-9-9-9-9-------------------------------
-|--2-2-----5-5-----7-7-7-7-7-7-7-7-7-77-7-7-7-7-------------------------------
                                                                              

-|------0--0-0--0-------0------0-------------------------------------------
-|------0--0--0---0-----0------0-------------------------------------------
-|-----------------------------------------------------------------------------
-|-----------------------------------------------------------------------------
-|------------------4-4------2-2-----------------------------------------------
-|--0-0------------------------------------------------------------------------
 SAME AS VERSE:  Played quieter and softer. Played 6 times.                   

-|-----------------------------------------------------------------------------
-|-----------------------------------------------------------------------------
-|-----------------------------------------------------------------------------
-|--2-2-2-2-4-4-4-4-6-6-6-6-7-7-7-7--------------------------------------------
-|--2-2-2-2-4-4-4-4-6-6-6-6-7-7-7-7--------------------------------------------
-|--0-0-0-0-2-2-2-2-4-4-4-4-5-5-5-5--------------------------------------------
 PRE-CHORUS:  Play this whole section palm muted. Play 4 times.               

-|----------------------------0---0--------------------------------------------
-|----------------------------0---0--------------------------------------------
-|-----------------------------------------------------------------------------
-|--2-2----24-4----46-6----67---9----------------------------------------------
-|--2-2----24-4----46-6----67---9----------------------------------------------
-|--0-0----02-2----24-4----45---7----------------------------------------------
 CHORUS 2:  Play 4 times.                                                     

-|------0--0-0----------0--0-0-------------------------------------------------
-|------0--0-0----------0--0-0-------------------------------------------------
-|-----------------------------------------------------------------------------
-|-----------------------------------------------------------------------------
-|-------------4--2--------------2-4p2-----------------------------------------
-|--0-0-------------0-0--------4-----------------------------------------------
 OUTRO:  Play 2 times.                                                        

-|------0--0-0----------0--0-0--------------0--0-0----------0-00---------------
-|------0--0-0----------0--0-0--------------0--0-0----------0-00---------------
-|-----------------------------------------------------------------------------
-|-----------------------------------------------------------------------------
-|-------------7--5--------------2-4p2-------------4--2------------------------
-|--0-0-------------0-0--------4--------0-0-------------0-0--------------------
 OUTRO:  Play once. Strum the last 2 notes.                                   
Comments