Wheatus - A Little Respect Chords & Tabs

 

A Little Respect Chords & Tabs

Wheatus Chords & Tabs

Version: 2 Type: Tab 0 ratings
1 star 2 stars 3 stars 4 stars 5 stars
comments

A Little Respect Tab

-------------------------------------------------------------------------------
			     WHEATUS - "A LITTLE RESPECT"
-------------------------------------------------------------------------------
Tabbed by: Salvador Pérez Rodríguez
Email: tkd_chava@hotmail.com

Group: Wheatus
Song: A Little Respect
Album: Wheatus

Seems long, but it's very easy and is the real way to play it.
I recomend to play along with the song to familiarizate with
the times, here we go:

()= Let the chord ring
/ = Slide
/\= Up stroke
\/= Down stroke

Ok, the strumming pattern is the same throughout the song:

down, down, up, up, down
 \/    \/   /\  /\   \/


INTRO:

e|----------------------------------------------------------------------------|
B|-1-1-1-1-1---1-1-1-1-1---1-1-1-1-1---1-1-1-1-1---1-1-1-1-1---1-1-1-1-1-(1)--|
G|----------------------------------------------------------------------------|
D|-2-2-2-2-2---3-3-3-3-3---2-2-2-2-2---3-3-3-3-3---2-2-2-2-2---3-3-3-3-3-(2)--|
A|-3-3-3-3-3---3-3-3-3-3---3-3-3-3-3---3-3-3-3-3---3-3-3-3-3---3-3-3-3-3-(3)--|
E|----------------------------------------------------------------------------|


VERSE 1:

e|-------------------------------------------------
B|-1-1-1-1-1---1-1-1-1-1---1-1-1-1-1---1-1-1-1-1---
G|-------------------------------------------------
D|-2-2-2-2-2---3-3-3-3-3---2-2-2-2-2---3-3-3-3-3---
A|-3-3-3-3-3---3-3-3-3-3---3-3-3-3-3---3-3-3-3-3---
E|-------------------------------------------------

e|-3-3-3-3-3---3-3-3-3-3---3-3-3-3-3---3-3-3-3-3---
B|-------------1-1-1-1-1---------------1-1-1-1-1---
G|-------------------------------------------------
D|-------------------------------------------------
A|-2-2-2-2-2---2-2-2-2-2---2-2-2-2-2---2-2-2-2-2---
E|-3-3-3-3-3---3-3-3-3-3---3-3-3-3-3---3-3-3-3-3---

e|-------------------------------------------------
B|-------------------------------------------------
G|-1-1-1-1-1---2-2-2-2-2---1-1-1-1-1---2-2-2-2-2---
D|-2-2-2-2-2---2-2-2-2-2---2-2-2-2-2---2-2-2-2-2---
A|-2-2-2-2-2---2-2-2-2-2---2-2-2-2-2---2-2-2-2-2---
E|-------------------------------------------------

e|-1-1-1-1-1-1-1-1-1-1-(1)----------------------------------------------------
B|-1-1-1-1-1-1-1-1-1-1-(1)----1-1-1-1-1---1-1-1-1-1---1-1-1-1-1---1-1-1-1-1---
G|-2-2-2-2-2-2-2-2-2-2-(2)----------------------------------------------------
D|-3-3-3-3-3-3-3-3-3-3-(3)----2-2-2-2-2---3-3-3-3-3---2-2-2-2-2---3-3-3-3-3---
A|-3-3-3-3-3-3-3-3-3-3-(3)----3-3-3-3-3---3-3-3-3-3---3-3-3-3-3---3-3-3-3-3---
E|-1-1-1-1-1-1-1-1-1-1-(1)----------------------------------------------------
[ Tab from: http://www.guitartabs.cc/tabs/w/wheatus/a_little_respect_tab_ver_2.html ]
e|-3-3-3-3-3---3-3-3-3-3---3-3-3-3-3---3-3-3-3-3---1-1-1-1-1-1-1-1-1-1---
B|-------------1-1-1-1-1---------------1-1-1-1-1---1-1-1-1-1-1-1-1-1-1---
G|-------------------------------------------------2-2-2-2-2-2-2-2-2-2---
D|-------------------------------------------------3-3-3-3-3-3-3-3-3-3---
A|-2-2-2-2-2---2-2-2-2-2---2-2-2-2-2---2-2-2-2-2---3-3-3-3-3-3-3-3-3-3---
E|-3-3-3-3-3---3-3-3-3-3---3-3-3-3-3---3-3-3-3-3---1-1-1-1-1-1-1-1-1-1---

e|-----------------------(3)----|
B|-----------------------(3)----|
G|-2-2-2-2-2-2-2-2-2-2----------|
D|-2-2-2-2-2-2-2-2-2-2----------|
A|-----------------------(2)----|
E|-----------------------(3)----|


CHORUS:

e|-------------------------------------------------
B|-1-1-1-1-1---1-1-1-1-1---1-1-1-1-1---1-1-1-1-1---
G|-------------------------------------------------
D|-2-2-2-2-2---3-3-3-3-3---2-2-2-2-2---3-3-3-3-3---
A|-3-3-3-3-3---3-3-3-3-3---3-3-3-3-3---3-3-3-3-3---
E|-------------------------------------------------

e|-------------------------------------------------
B|-------------1-1-1-1-1---------------1-1-1-1-1---
G|-2-2-2-2-2---2-2-2-2-2---2-2-2-2-2---2-2-2-2-2---
D|-2-2-2-2-2---2-2-2-2-2---2-2-2-2-2---2-2-2-2-2---
A|-------------------------------------------------
E|-------------------------------------------------

e|-1-1-1-1-1-1-1-1-1-1-(1)---------------------------
B|-1-1-1-1-1-1-1-1-1-1-(1)---------------------------
G|-2-2-2-2-2-2-2-2-2-2-(2)---2-2-2-2-2---2-2-2-2-2---
D|-3-3-3-3-3-3-3-3-3-3-(3)---2-2-2-2-2---2-2-2-2-2---
A|-3-3-3-3-3-3-3-3-3-3-(3)---------------------------
E|-1-1-1-1-1-1-1-1-1-1-(1)---------------------------

e|-3-3-3-3-3-3-3-3-3-3---------------------------
B|-2-2-2-2-2-2-2-2-2-2---1-1-1-1-1---1-1-1-1-1---
G|-----------------------------------------------
D|-----------------------2-2-2-2-2---3-3-3-3-3---
A|-2-2-2-2-2-2-2-2-2-2---3-3-3-3-3---3-3-3-3-3---
E|-3-3-3-3-3-3-3-3-3-3---------------------------

e|----------------------------------------------------|
E|-1-1-1-1-1---1-1-1-1-1---1-1-1-1-1---1-1-1-1-1-(1)--|
G|----------------------------------------------------|
D|-2-2-2-2-2---3-3-3-3-3---2-2-2-2-2---3-3-3-3-3-(2)--|
A|-3-3-3-3-3---3-3-3-3-3---3-3-3-3-3---3-3-3-3-3-(3)--|
E|----------------------------------------------------|


VERSE 2: Same as "VERSE 1"



SOLO:

e|-------------------------------------------------------------------------|
B|-------------------------------------------------------------------------|
G|-------------------------------------------------------------------------|
D|------5--5/3--2--(0)---5--5/3--2--(0)------------------------------------|
A|---------------------------------------3--2--2/3-------------------------|
E|-------------------------------------------------------------------------|


OUTRO: Same as "INTRO"

And that's all of it. Just put it in order and there you go.
Remember, any comment please send to: tkd_chava@hotmail.com
Comments