Whatever It Takes - Life Voice Action Change Chords & Tabs

 

Life Voice Action Change Chords & Tabs

Whatever It Takes Chords & Tabs

Version: 1 Type: Bass Tab 0 ratings
1 star 2 stars 3 stars 4 stars 5 stars
comments

Life Voice Action Change Bass Tab

Whatever It Takes - Life Voice Action Change


By:Graham Fraser 

This I think is one of their best songs and so I thought I would figure 
it out for all of you. I am Pretty sure it is 100%. If you have any questions 
or comments e-mail me at ekoston45@hotmail.com 
The timing for it isn't done so listen to the song and hopefully you will get it right. 
I put it all in order so just play the song going down the page 

> Hit note 8 times 

Intro/verse part (0:05) 
G|----6-----6---------4---3----------6-----6----------------------------------| 
D|--8-----6-----4------------------8-----6------------------------------------| 
A|6-----4---------4-2---1---1-2--6-----4-----2--HOLD--------------------------| 
E|------------2---------------------------------------------------------------| 

1st Verse 
G|----6-----6---------4---3--------|-----6-----6------------------------------| 
D|--8-----6-----4------------------|---8-----6--------------------------------| 
A|6-----4---------4-2---1---1-2--X3|-6-----4-----2>-2>-2>-2>------------------| 
E|------------2--------------------|------------------------------------------| 
[ Tab from: http://www.guitartabs.cc/tabs/w/whatever_it_takes/life_voice_action_change_btab.html ]
Course Little thing before verse 
G|------------------------------|-2h4-----------------------------------------| 
D|------------------------------|---------------------------------------------| 
A|----2>----2>----2>----2-HOLD--|---------------------------------------------| 
E|-2>----2>----2>----2>---------|---------------------------------------------| 

2nd Verse 
G|----6-----6---------4---3----------6-----6------------------------------| 
D|--8-----6-----4------------------8-----6--------------------------------| 
A|6-----4---------4-2---1---1-2--6-----4-----2>-2>-2>-2>------------------| 
E|------------2-----------------------------------------------------------| 

Course 
G|---------------------------------------------------------------------------| 
D|---------------------------------------------------------------------------| 
A|----2>----2>----2>----2>---------------------------------------------------| 
E|-2>----2>----2>----2>------------------------------------------------------| 

Bridge 
G|----------------------------------|-----------------------------------------| 
D|--------------------------------X3|-------------------------X2--------------| 
A|-66666-------------2>-2>-2>-2>----|-6>-6>-------2>-2>-2>-2>-----------------| 
E|-------------2>-2>----------------|-------2>-2>-----------------------------| 

G|---------------------------------------------------------------------------| 
D|---------------------------------------------------------------------------| 
A|-6> 6>-------2 HOLD--------------------------------------------------------| 
E|-------2>-2>---------------------------------------------------------------|
Comments