Whatever It Takes - Green Light Yellow Light Stop Chords & Tabs

 

Green Light Yellow Light Stop Chords & Tabs

Whatever It Takes Chords & Tabs

Version: 1 Type: Bass Tab 0 ratings
1 star 2 stars 3 stars 4 stars 5 stars
comments

Green Light Yellow Light Stop Bass Tab

------------------------------------------------------------------------------- 
            GREEN LIGHT, YELLOW LIGHT, STOP - Whatever it Takes 
------------------------------------------------------------------------------- 

By:Lara...basser for inert (punkette1@hotmail.com) 

VERSE 
G||---------------------------------------------------- 
D||-----3-----3-----4-----4-----------------4-4-3-3---- 
A||-4-4---4-4---6-6---6-6-------4-----4-------------3-3 
E||-------------------------6-6---4-4---2-2------------ (x2) 
[ Tab from: http://www.guitartabs.cc/tabs/w/whatever_it_takes/green_light_yellow_light_stop_btab.html ]
G||-------------------------------------------------------- 
D||-------------------------------------------------------- 
A||-4-4-4-4-4-4-4-4-6-6-6-6-6-6-6-6------------------------ 
E||---------------------------------6-6-6-6-4-4-4-4-2-2-2-2 (X2) 

CHORUS 
G||------------------------------------------------------------ 
D||------------------------------------------------------------ 
A||-----------------------------3-3-4-4-4-4-4-4-3-3------------ 
E||-6-6-6-6-6-6-4-4-2-2-2-2-2-2---------------------4-4-4-4-4-4 

VERSE 
CHORUS 
VERSE 
CHORUS 
CHORUS(AS BRIDGE..JUST PLAYED SLOWER) 
VERSE 

===============================================================================
Comments