Wet Wet Wet - Somewhere Somehow Chords & Tabs

 

Somewhere Somehow Chords & Tabs

Wet Wet Wet Chords & Tabs

Version: 1 Type: Tab 0 ratings
1 star 2 stars 3 stars 4 stars 5 stars
comments

Somewhere Somehow Tab

ARTIST: Wet Wet Wet
TITLE: Somewhere Somehow
ALBUM: Picture This
TABBED BY: Martin Kelly

It's not exactly perfect, but if you see any errors contact the address below. Otherwise, have fun.

INTRO

E----------2-2-----------------2-------------------------------------------------------------
B--2-------3-3---------2-------3-------------------------------------------------------------
G--2-------2-2---------2-------2-------------------------------------------------------------
D--2-------0-0---------2-------0-------------------------------------------------------------
A--0-------------------0---------------------------------------------------------------------
E--------------------------------------------------------------------------------------------

VERSE [repeat once]

E---------0----------------------------------------------------------------------------------
B------------------3--3----------------------------------------------------------------------
G--2---------------2--2----2-----------------------------------------------------------------
D--2-----------------------2-----------------------------------------------------------------
A--------------------------------------------------------------------------------------------
E--------------------------------------------------------------------------------------------

CHORUS
[ Tab from: http://www.guitartabs.cc/tabs/w/wet_wet_wet/somewhere_somehow_tab.html ]
E---------2------------------2---2----5---------------2--------------2-----------------------
B--2------3---0-------2------3---3---------------2----3------2---0---3-----------------------
G--2------2---1-------2------2---4------6/7------2----2------2---1---2-----------------------
D--2------0---2-------2------0---4---------------2----0------2---2---0-----------------------
A--0----------2-------0--------------------------0-----------0---2---------------------------
E--------------------------------------------------------------------------------------------

SOLO 1

E--------------------------------------------------------------------------------------------
B--------------------------------------------------------------------------------------------
G--2/6-----6--4--6----14--11--------9---7--6--4---6--4--6--2---------------------------------
D--------------------------------------------------------------------------------------------
A--------------------------------------------------------------------------------------------
E--------------------------------------------------------------------------------------------

SOLO 2

E--------------------------------------------------------------------------------------------
B--------------------------------------------------------------------------------------------
G--2/6--------14--11---14---18-----18---19/21--21--------------------------------------------
D--------------------------------------------------------------------------------------------
A--------------------------------------------------------------------------------------------
E--------------------------------------------------------------------------------------------

ENDING

E--------------------------------------------------------------------------------------------
B--2----1----1----1----1-----2---------------------------------------------------------------
G--2----2----2----2----2-----2---------------------------------------------------------------
D--2----2----2----2----2-----2---------------------------------------------------------------
A--0-------------------------0---------------------------------------------------------------
E--------------------------------------------------------------------------------------------



For a list of Guitar Tabs, contact electricgod8512@aol.com.


Comments