Wet Slipperz - Bisan Pa Chords & Tabs

 

Wet Slipperz Chords & Tabs

Version: 3 Type: Tab 0 ratings
1 star 2 stars 3 stars 4 stars 5 stars
comments

Bisan Pa Tab

   
Eto po yung correct tab and chords..

Hope makuha niyo eto..!

^_^

   e|------------------------------|-------------------------0------|
   B|----3-----3------3-----3---3--|---3----3------3-----3-3--------|
   G|-----0-----0--------------0--0|----0----0------------0---------|
   D|-5----5-4---4------------0----|-5---5-4--4---------------------|
   A|---------------3---2s3--------|-------------3---2s3------------|
   E|------------------------------|--------------------------------|

I.
G        D     C          
Dili sayon ang hikalimtan ka...
G        D      C             
Hangtod karon ako nag-pa-abot pa....
G       D             C        
Nga Mahibalik pa ang kagahapon ta
Em          D         C    Hold-C
Bisan pa ug ako gikalimtan mo na....

Chorus:
G               D        C  D
Bisan pa ug may la-in ka na karon
G             D           C  D
Ikaw lang gihapon ang higugma-on
G             D           C          D
Bisan pa ug kasakit lang ang ma-angkon
Em            D          C
Basta malipay ka ang tanan akong dawaton...T_T
(Repeat Intro)
[ Tab from: http://www.guitartabs.cc/tabs/w/wet_slipperz/bisan_pa_tab_ver_3.html ]
II.
G      D        C             
Nakita ko karon ang kahimtang mo....
G         D           C             
Lahi ra gyud sa ako pa ang ka-uban mo...(Ang kauban mo...)
G          D           C         
Sa iyang kiliran pagka malipayon mo
Em         D        C              D
Ug ako ani-a naghandom nga balikon mo...Ohh...
(Repeat Chorus)

Bridge:
Am          Bm           C              D
Hangtod karon ako ming-laom lang gihapon..
Am        Bm           C              D
Nga mo-abot ang panahon nga imong balikon...

Lead Chords:G-D-C-D(3x), Em-D-C


e|-------------------------------------------------------10-8-7---------------|
B|---------------------------------------8/10-10-8-7-5----------8--10b8-------|
G|---------------------------------7-9-7---------------7----------------9b7---|
D|------5-5--7/9-7-777/555/222-00-7-------------------------------------------|
A|--5/7--7-7------------------------------------------------------------------|
E|----------------------------------------------------------------------------|

|---------------------------------------10------------------15--15--15-18b~~~~|
|-------------------------8-8-8-8-10-10b--10b-88-8-8-8-13/15--15--15----------|
|------------------------9-9-9-9----------------9-9-9-------------------------|
|-10/12-12-101010/999/77------------------------------------------------------|
|-----------------------------------------------------------------------------|
|-----------------------------------------------------------------------------|




G-D-C           G-C-D
Bisan pa.... Bisan pa...


Ang tanan akong dawaton...




Then Paki-rate..

Hope you get it..!

hehe


Certified PIKUTLOVER


Comments