Westside Connection - Bow Down Chords & Tabs

 

Bow Down Chords & Tabs

Westside Connection Chords & Tabs

Version: 1 Type: Bass Tab 0 ratings
1 star 2 stars 3 stars 4 stars 5 stars
comments

Bow Down Bass Tab

-------------
Bow Down
-------------
from Westside Connection album "Bow Down"
tab by Matt Clark, Matt.Clark@umit.maine.edu


Intro
[ Tab from: http://www.guitartabs.cc/tabs/w/westside_connection/bow_down_btab.html ]
 Synth for Guitar in dropped D tuning                                             
E|---------------------------------------------------------------------|
B|---------------------------------------------------------------------|
G|---------------------------------------------------------------------|
D|---------------------------------------------------------------------|
A|-1------0----------------------5-------------------------------------|
D|---------------------------0-----------------------------------------| 


Main Riff

 Bass - in dropped D tuning
G|---------------------------------------------------------------------|
D|---------------------------------------------------------------------|
A|-1------1-0-0-0------------0-0-5-------0-----------------------------|
D|-------------------------------------5-------------------------------| 


Comments