Weston - No Kind Of Superstar Chords & Tabs

 

No Kind Of Superstar Chords & Tabs

Weston Chords & Tabs

Version: 2 Type: Bass Tab 0 ratings
1 star 2 stars 3 stars 4 stars 5 stars
comments

No Kind Of Superstar Bass Tab

BAND: Weston
SONG: No Kind of Superstar
TAB BY: Servo (ZServo@aol.com)
------------------------------------------------------------------------------------


INTRO: (2x)
G|--2-1------2-1--------2-4--7----2-4--7--|
D|------4-2------4-2----------------------|
A|--------------------0---------0---------|
E|----------------------------------------|


VERSE: (2x)
G|----------------------------------------|-----------------|
D|----------------------------------------|--2--------------|
A|--00000000-----------------4/5-5-5-5/4--|----5-4/5-4-2-0--|
E|-----------00000000--2-2-2--------------|-----------------|


CHORUS: (2x)            
G|----------------------|
D|-----------2-0--------|
A|---------------4-2-0--|
E|--5--4--2-------------|

[ Tab from: http://www.guitartabs.cc/tabs/w/weston/no_kind_of_superstar_btab_ver_2.html ]
POST CHORUS (1x)
|---------------------------------------------|
|---------------------------------------------|
|--2-2-4-4/5--2-2-4-4/5--2-2-4-4/5---5/4/2/0--|
|---------------------------------------------|


BASS SOLO: (2x)
G|---------2---2---2-2/0---------------------------------------------------------|
D|-----------------------2--------2---2---2--2-2--0/2/4---------------2----------|
A|--0--0-0---0---0--------------------------------------------4-4/5-5---5/4-2-0--|
E|-------------------------0--0-0---0---0-----------------2-2--------------------|


OUTRO: (2x)
G|--2-1------|-----|
D|------4-2--|-----|
A|-----------|--0--|
E|-----------|-----|


Greets: Phoenix Down (Dennis, Alex, Nick), Laurie, Stem, Ben, Jenni, Tit
Visit : http://phoenixdown.cjb.net
E-mail: PhoenixDownNJ@hotmail.com
-------------------------------------------------------------------------------------
Comments