Westlife - Swear It Again Chords & Tabs

 

Swear It Again Chords & Tabs

Westlife Chords & Tabs

Version: 1 Type: Tab 0 ratings
1 star 2 stars 3 stars 4 stars 5 stars
comments

Swear It Again Tab

#----------------------------------PLEASE NOTE---------------------------------#
#This file is the author's own work and represents their interpretation of the #
#song. You may only use this file for private study, scholarship, or research. #
#------------------------------------------------------------------------------#
Tabber: V.Chiang
Westlife - Swear It Again


Intro:
|-5--5----4--5------|
|-------5-------5/7-|
|-------------------|
|-------------------|
|-------------------|
|-------------------|

Verse:
|-5---5---5---5-----4---4---4---4-----5---5---5---5-----5/7---|
|-5---5---5---5---5-5---5---5---5---5-5---5---5---5-----5/7-5-|
|-------------------------------------------------------------|
|-------------------------------------------------------------|
|-------------------------------------------------------------|
|-------------------------------------------------------------|


|-0-----0----|-0-----0----|-3-----3----|-3--|----|--------------|
|-2---2---0--|-0---0---0--|-3---3---3--|-3--|-3--|--------------|
|-2-2--------|-2-2--------|-2-2--------|-2--|-2--|------------0-|
|------------|------------|-0----------|-0--|-0--|-0-2-4--------|
|-0----------|------------|------------|----|----|--------------|
|------------|-4----------|------------|----|-2--|--------------|
 Just look around
 


Bridge:
|-----2---|-----0---|-----0---|---------|-----0-------0-|-2--|
|-----3---|-----3---|-----3---|-----0---|-----3-------3-|-3--|
|---2---2-|---2---2-|---2---2-|-----4---|---2---2---2---|-2--|
|-0-------|---------|---------|---2---2-|---------------|-0--|
|---------|-4-------|-2-------|---------|-4-------4-----|----|
|---------|---------|---------|-0-------|---------------|----|
 So you should know this love we share was never made to di

[ Tab from: http://www.guitartabs.cc/tabs/w/westlife/swear_it_again_tab.html ]
Chorus:
|-----|-----|-----0-------0---|-----0-------0---|-----0-------0---|-----2---|
|-----|-----|-----2-------2---|-----0-------0---|-----2-------2---|-----3---|
|---2-|---2-|---2---2---2---2-|---2---2---2---2-|---2---2---2---2-|---2---2-|
|-----|-----|-----------------|-----------------|-----------------|-0-------|
|-4---|-2---|-0-------0-------|-----------------|-----------------|---------|
|-----|-----|-----------------|-4-------4-------|-2-------2-------|---------|
 Just you and I


|-----|-----|-----0-------0---|-----0-------0---|-----0-------0---|-----2---|
|-----|-----|-----2-------2---|-----0-------0---|-----2-------2---|-----3---|
|---2-|---2-|---2---2---2---2-|---2---2---2---2-|---2---2---2---2-|---2---2-|
|-----|-----|-----------------|-----------------|-----------------|-0-------|
|-4---|-2---|-0-------0-------|-----------------|-----------------|---------|
|-----|-----|-----------------|-4-------4-------|-2-------2-------|---------|
 And I swear it all over again and I


|-----|-----|-----0---|
|-----|-----|-----2---|
|---2-|---2-|---2---2-|
|-----|-----|---------|
|-4---|-2---|-0-------|
|-----|-----|---------|
 And I swear it all over again


|-----0--|----|
|-----0--|----|
|---2----|----|
|--------|----|
|--------|----|
|-4------|-2--|
 All over again


Verse (Same chords)


Chorus


|-----0---|-----2-----2---2--|-----0---|-----0---|-----2-----2---2--|
|-----0---|-----3-----3---3--|-----3---|-----3---|-----3-----3---3--|
|---2---2-|---2---2--2-2-2-2-|---2---2-|---2---2-|---2---2--2-2-2-2-|
|---------|-0------0----0----|---------|---------|-0------0----0----|
|-4-------|------------------|-2-------|-4-------|------------------|
|---------|------------------|---------|---------|------------------|
 The more I know of you ...


|-----0---|-----0---|-----2---|-----0---|-----0-------0---|-----|-----|
|-----3---|-----3---|-----3---|-----0---|-----0-------0---|-----|-----|
|---2---2-|---2---2-|---2---2-|---0---0-|---1---1---1---1-|---1-|---2-|
|---------|---------|-0-------|-1-------|-2-------2-------|-2---|-0---| --> Continue Chorus
|-2-------|-4-------|---------|---------|-----------------|-----|-----|
|---------|---------|---------|---------|-----------------|-----|-----|
 The more that you love me ...



From: V.Chiang 
Comments