Wes Montgomery - Four On Six Chords & Tabs

 

Four On Six Chords & Tabs

Wes Montgomery Chords & Tabs

Version: 1 Type: Tab 0 ratings
1 star 2 stars 3 stars 4 stars 5 stars
comments

Four On Six Tab

---------------|---------------|---------------|---------------|
---------------|---------------|---------------|---------------|
---------------|---------------|---------------|---------------|
------------5--|------------5--|------------5--|------------5--|
------5--3-----|------5--3-----|------5--3-----|------5--3-----|
---3-----------|---3-----------|---3-----------|---3-----------|


 ______________________________________________________________
| 1.
---------------|---------------|---------------|---------------|
---------------|---------------|---------------|---------------|
-----------5---|---------------|---------------|------------8--|
----5--3-------|----------8----|----------7----|------8--6-----|
-3-------------|----8--6-------|----7--5-------|---6-----------|
---------------|-6-------------|-5-------------|---------------|


________________
| 2.
---------------|---------------|---------------|--------------|
-3--3--2---3---|------6--------|---------------|--------------|
-2--3--4---5---|------5--------|---------------|--------------|
-3--3--4---5---|------4--------|-----------5---|--------3/8-5-|
-1-------------|------5--------|----5--3-------|----5--3------|
----3--4---5---|---------------|--3------------|-3------------|


[ Tab from: http://www.guitartabs.cc/tabs/w/wes_montgomery/four_on_six_tab.html ]
----------------|-------------------|-------------------------|
--3-3-----------|-3h4-3-----------3-|---5-5-------------------|
------3-5-5--3--|-------3-5-----3---|---------------2--2------|
----------------|-------------5-----|------------5------------|
----------------|-------------------|-------------------------|
----------------|-------------------|-------------------------|


-----------------|------------|---------|---------------------|
-----------------|------------|---------|---------------------|
---6h7----------6h5----------5h4------11h10----------3--5-----|
-------8---------|--6---------|--5------|---11----------------|
-----------8--8--|-----6--4---|----5--3-|------11--9----------|
-----------------|------------|---------|---------------------|


---------------|-----------------------|-----------------|----|
-3-3-----------|-3h4--3---------------3|-5--5------------|----|
------3-5-5--3-|---------3--5-------3--|-----------2--2--|----|
---------------|-----------------5-----|--------5--------|----|
---------------|-----------------------|-----------------|----|
---------------|-----------------------|-----------------|----|


--------------|-------|-------------|-------------------------|
--3---3--2--3-|---6---|-------------|-------------------------|
--2---3--4--5-|---5---|-------------|-------------------3-----|
--3---3--4--5-|---4---|-----------5-|--------------5----------|
--1-----------|---5---|----5---3----|----5---3----------------|
------3--4--5-|-------|-3-----------|-3-----------------------|
Comments