Wertz Matt - Red Meets Blue Chords & Tabs

 

Red Meets Blue Chords & Tabs

Wertz Matt Chords & Tabs

Version: 1 Type: Tab 0 ratings
1 star 2 stars 3 stars 4 stars 5 stars
comments

Red Meets Blue Tab

Author/Artist: Matt Wertz
Title: Red Meets Blue
Album: Orange Bonus CD from Somedays
Transcribed by: Patrick Timson
Email: Patrekkk@attbi.com

This song is typically played tuned down one half step
The x's across the bars mean that Matt mutes the strings and kinda slaps them
to give the song a beat of sorts

---------x------------x-------------------------------------------------------
---3-----x----------7-x-7-----------------------------------------------------
---2-p-0-x----------7-x-6-----------------------------------------------------
---------x------------x-------------------------------------------------------
---------x------------x-------------------------------------------------------
-3-------x3-/-7-7-7---x-------------------------------------------------------
 ^^^This is the intro/verse just repeat it for a while^^^                     
[ Tab from: http://www.guitartabs.cc/tabs/w/wertz_matt/red_meets_blue_tab.html ]
---------x-------------x---------------x-------------x------------------------
-----8\7-x-----7-----7-x-----7-----8\7-x-----7-----3-x------0-----------------
---7-----x---7-----7---x---7-----7-----x---7-----4---x----0-------------------
---------x-------------x---------------x-------------x------------------------
-5-------x-5-----------x---------------x-------------x--0---------------------
---------x-------5-----x-5-----7-------x-7-----3-----x------------------------
 ^^^Chorus, again just repeat it^^^                                           

-------------------------------------|----------------------------------------
--3--3--x--3--5--------------5-------|-3--3--5--5-----5--3--------------------
--4--4--x--4--6--7--7--x--7--6-------|-4--4--6--6--7--6--4--------------------
-----------------0--0--x--0----------|-------------7--------------------------
-------------------------------------|----------------------------------------
--3-----x--3--5--7--------7--5-------|-3--3--5--5--7--5--3--------------------
 ^^^Bridge repeat this part twice^^^  ^Play this the 3rd time b4 the chorus^  

------------------------------------------------------------------------------
------------------------------------------------------------------------------
------------------------------------------------------------------------------
------------------------------------------------------------------------------
------------------------------------------------------------------------------
------------------------------------------------------------------------------
Comments