Weller Paul - Brand New Start Chords & Tabs

 

Brand New Start Chords & Tabs

Weller Paul Chords & Tabs

Version: 2 Type: Tab 1 rating
1 star 2 stars 3 stars 4 stars 5 stars
comments

Brand New Start Tab

   
 

                 Brand New Start - Paul Weller
               ********************************

Intro:

Verse Finger picking pattern/ Strum Pattern Tab:


         G      D       Em          Em
e:|------3------2--------0-----------0--------  and repeat all the
B:|-----(0)-----3-------(0)---------(0)-------  way through, except
G:|-----(0)-----2-------(0)---------(0)-------  the last line of the
D:|-----------0--------2-----------2-----0----  verse which replaces
A:|----2----0------0h2---------0h2---------2--  the Em with  C chord.
E:|--3----------------------------------------


(guitar solo - same chords as verses)


Guitar Solo 1:  (Have Wah Wah effect on or a bit of reverb for the weller feel)

e:|-----------------------------------------------------------------|
B:|--/12-12-12-12/-15-15gbur-12~~~~~--------------------------------|
G:|-----------------------------------------------------------------|
D:|-----------------------------------------------------------------|
A:|-----------------------------------------------------------------|
E:|-----------------------------------------------------------------|

e:|-------------------12--------------------------------------------|
B:|--/12-12-12-12/-15----15gbur-12~~~~~-----------------------------|
G:|-----------------------------------------------------------------|
D:|-----------------------------------------------------------------|
A:|-----------------------------------------------------------------|
E:|-----------------------------------------------------------------|

e:|-----------------------------------------------------------------|
B:|--15/-12-12-12--12h13p12---11--11---9~~~~~-----------------------|
G:|-----------------------------------------------------------------|
D:|-----------------------------------------------------------------|   
A:|-----------------------------------------------------------------|
E:|-----------------------------------------------------------------|
[ Tab from: http://www.guitartabs.cc/tabs/w/weller_paul/brand_new_start_tab_ver_2.html ]
e:|---------------------12------------------------------------------|
B:|--/12-12-12-12/-15------12~~~~-----------------------------------|
G:|-----------------------------------------------------------------|
D:|-----------------------------------------------------------------|
A:|-----------------------------------------------------------------|
E:|-----------------------------------------------------------------|


 
Guitar Solo 2:  (Have Wah Wah effect on or a bit of reverb for the weller feel)


e:|-----------------------------------------------------------------|
B:|--/12-12-12-12/-15-15gbur-12~~~~~--------------------------------|
G:|-----------------------------------------------------------------|
D:|-----------------------------------------------------------------|
A:|-----------------------------------------------------------------|
E:|-----------------------------------------------------------------|

e:|---------------------17/-15----15/--12---------------------------|
B:|--/12-12-12-12/-15---------------------15--12~~~~~---------------|
G:|-----------------------------------------------------------------|
D:|-----------------------------------------------------------------|
A:|-----------------------------------------------------------------|
E:|-----------------------------------------------------------------|

e:|-----------------------------------------------------------------|
B:|--15/-12-12-12-12h13p12------------------------------------------|
G:|-------------------------14--12----------------------------------|
D:|--------------------------------14~~~~~--------------------------|
A:|-----------------------------------------------------------------|
E:|-----------------------------------------------------------------|

e:|-----------------------------------------------------------------|
B:|--/12-12-12-12/-15-15gbur-12~~~~---------------------------------|
G:|-----------------------------------------------------------------|
D:|-----------------------------------------------------------------|
A:|-----------------------------------------------------------------|
E:|-----------------------------------------------------------------|


Submitted by Nick Walton. These are just a variation on the old one, cus there 
are different ways to play everything, and i fugured these out so decided to tab them.



Comments