Weller Paul - Brand New Start Chords & Tabs

 

Brand New Start Chords & Tabs

Weller Paul Chords & Tabs

Version: 1 Type: Tab 1 rating
1 star 2 stars 3 stars 4 stars 5 stars
comments

Brand New Start Tab


       Brand New Start – Sir Paul Weller (The Modfather!!!)
      ******************************************************



      Verse Finger picking pattern/ Strum Pattern Tab:

e:|------0------2--------0-----------0--------  and repeat all the
B:|-----(0)-----3-------(0)---------(0)-------  way through, except
G:|-------------2-------(0)---------(0)-------  the last line of the
D:|-----------0--------2-----------2-----0----  verse which replaces
A:|----2----0------0h2---------0h2---------2--  the Em with  C chord.
E:|--3----------------------------------------


Guitar Solo 1:  (Have Wah Wah effect on or a bit of reverb for the weller feel)

Part 1

e:|-----------------------------------------------------------------|
B:|---12-12-12-12/-15-15gbur-12~~~~~--------------------------------|
G:|-----------------------------------------------------------------|
D:|-----------------------------------------------------------------|
A:|-----------------------------------------------------------------|
E:|-----------------------------------------------------------------|


Part 2

e:|-------------------12--------------------------------------------|
B:|---12-12-12-12/-15----15gbur-12~~~~~-----------------------------|
G:|-----------------------------------------------------------------|
D:|-----------------------------------------------------------------|
A:|-----------------------------------------------------------------|
E:|-----------------------------------------------------------------|


Part 3

e:|-----------------------------------------------------------------|
B:|--15/-12—12h13p12------------------------------------------------|
G:|-------------------14--12----------------------------------------|
D:|---------------------------14~~~~~-------------------------------|
A:|-----------------------------------------------------------------|
E:|-----------------------------------------------------------------|


Part 4
[ Tab from: http://www.guitartabs.cc/tabs/w/weller_paul/brand_new_start_tab.html ]
e:|-----------------------------------------------------------------|
B:|--/12-12-12-12/-15-15gbur-12~~~~---------------------------------|
G:|-----------------------------------------------------------------|
D:|-----------------------------------------------------------------|
A:|-----------------------------------------------------------------|
E:|-----------------------------------------------------------------|




Guitar Solo 2:  (Have Wah Wah effect on or a bit of reverb for the weller feel)


Part 1

e:|-----------------------------------------------------------------|
B:|--/12-12-12-12/-15-15gbur-12~~~~~--------------------------------|
G:|-----------------------------------------------------------------|
D:|-----------------------------------------------------------------|
A:|-----------------------------------------------------------------|
E:|-----------------------------------------------------------------|


Part 2

e:|---------------------/17----/15----/12---------------------------|
B:|--/12-12-12-12/-15-----------------------15--12~~~~~-------------|
G:|-----------------------------------------------------------------|
D:|-----------------------------------------------------------------|
A:|-----------------------------------------------------------------|
E:|-----------------------------------------------------------------|


Part 3

e:|-----------------------------------------------------------------|
B:|--15/-12—12h13p12------------------------------------------------|
G:|-------------------14--12----------------------------------------|
D:|---------------------------14~~~~~-------------------------------|
A:|-----------------------------------------------------------------|
E:|-----------------------------------------------------------------|


Part 4

e:|-----------------------------------------------------------------|
B:|--/12-12-12-12/-15-15gbur-12~~~~---------------------------------|
G:|-----------------------------------------------------------------|
D:|-----------------------------------------------------------------|
A:|-----------------------------------------------------------------|
E:|-----------------------------------------------------------------|




Submitted By Nick Walton, Paul's Partner In Crime, I've Played Many Gig's with Him.
Comments