Weller Paul - All On A Misty Morning Intro Riff Chords & Tabs

 

All On A Misty Morning Intro Riff Chords & Tabs

Weller Paul Chords & Tabs

Version: 1 Type: Tab 0 ratings
1 star 2 stars 3 stars 4 stars 5 stars
comments

All On A Misty Morning Intro Riff Tab

   
Artist:  Paul Weller
Album:   As is Now

e: ---------------------------
B: ---------------------------
G: -------0-2-0h2p0-----------
D: ---2h4-----------4-0-2-----
A: -0-------------------------
E: ---------------------------

e: ---------------------------
B: -------------------7-5-----
G: -------0-2-2h4p2-0---------
D: ---2h4---------------------
A: -0-------------------------
E: ---------------------------
e: ---------------------------
B: ---------------------------
G: -------0-2-0h2p0-----------
D: ---2h4-----------4-0-2-----
A: -0-------------------------
E: ---------------------------

e: ---------------------------
B: ---------------------------
G: ---------------------------
D: -2-2-4-2~------------------
A: -0-0-0-0~------------------
E: ---------------------------
[ Tab from: http://www.guitartabs.cc/tabs/w/weller_paul/all_on_a_misty_morning_intro_riff_tab.html ]
e: ---------------------------
B: ---------------------------
G: -------0-2-0h2p0-----------
D: ---2h4-----------4-0-2-----
A: -0-------------------------
E: ---------------------------

e: ---------------------------
B: -------------------7-5-----
G: -------0-2-2h4p2-0---------
D: ---2h4---------------------
A: -0-------------------------
E: ---------------------------
e: ---------------------------
B: ---------------------------
G: -------0-2-0h2p0-----------
D: ---2h4-----------4-0-2-----
A: -0-------------------------
E: ---------------------------

e: ---------------------------
B: ---------------------------
G: ---------------------------
D: -2-2-4-2~------------------
A: -0-0-0-0~------------------
E: ---------------------------

C/D   A/B   G/A   G/A


Comments