Weird Al Yankovic - Smells Like Nirvana Chords & Tabs

 

Smells Like Nirvana Chords & Tabs

Weird Al Yankovic Chords & Tabs

Version: 3 Type: Tab 0 ratings
1 star 2 stars 3 stars 4 stars 5 stars
comments

Smells Like Nirvana Tab

tuning:standard
tabbed by:a crazy teenage rock and roll fan
artist:wierd al yankovic
song title:smells like nirvana 
originally released by nirvana as "smells like teen spirit"

intro.
E|--------x-x-x-x-----0--------x-x-x-x-----|
B|--------x-x-x-x-----0--------x-x-x-x-----|
G|--------x-x-x-x-3-3-0--------x-x-x-x-3-3-|
D|-3--3-3-x-x-x-x-3-3-0-3--3-3-x-x-x-x-3-3-|
A|-3--3-3-x-x-x-x-1-1-0-3--3-3-x-x-x-x-1-1-|
E|-1--1-1-x-x-x-x-----0-1--1-1-x-x-x-x-----|
main riff
[ Tab from: http://www.guitartabs.cc/tabs/w/weird_al_yankovic/smells_like_nirvana_tab_ver_3.html ]
verse
E|---1----------1----------1----------1-|
B|-1----------1----------1----------1---|
G|--------------------------------------|
D|--------------------------------------|
A|--------------------------------------|
E|--------------------------------------|
repeat throughout verse

solo. (arranged for guitar)
E|--------------------------------------------|
B|--------------------------------------------|
G|---8-10---8-8b10r8-6-5---6-5----------------|
D|-8------6--------------------8-6-8b10r8-6-5-|
A|--------------------------------------------|
E|--------------------------------------------|
play twice

E|---------------------|
B|---------------------|
G|---------------------|
D|-6-5-6-5-6-5-6\5-5\3-|
A|---------------------|
E|---------------------|
Comments