Weird Al Yankovic - Pretty Fly For A Rabi Chords & Tabs

 

Pretty Fly For A Rabi Chords & Tabs

Weird Al Yankovic Chords & Tabs

Version: 1 Type: Tab 0 ratings
1 star 2 stars 3 stars 4 stars 5 stars
comments

Pretty Fly For A Rabi Tab

key:
* = hold note
P = Pull off

|-----------------|         |------------|
|-----------------|         |------------|
|-------------797-|         |------------|
|-9*-947---9*-797-| x3 then |-9*-947--9*-|
|-9*-947---9*-575-|         |-9*-947--9*-|
|-7*-725---7*-----|         |-7*-725--7*-|

|-7-7-|
|-7-7-| x7
|-----|        each 2 and a bit seconds apart
|-----|
|-----|
|-----|

|------------------------------------------------|
|------------------------------------------------|
|------9P11-9P11-------9P11-9P11--7*-7-7--9*-97--|
|-9*-9-9P11-9P11--9*-9-9P11-9P11--7*-777--9*-977-|
|-9*-9-7P-9-7P-9--9*-9-7P-9-7P-9--5*-575--7*-757-|
|-7*-7------------7*-7----------------5--------5-|

|-------------------------------------------------|
|-------------------------------------------------|
|------9P11-9P11-------9P11-9P11--7*-7-7--9791097-|
|-9*-9-9P11-9P11--9*-9-9P11-9P11--7*-777--9791097-|
|-9*-9-7P-9-7P-9--9*-9-7P-9-7P-9--5*-575--757-875-|
|-7*-7------------7*-7----------------5-----------|

|------------------------------------------------|
|------------------------------------------------|
|------9P11-9P11-------9P11-9P11--7*-7-7--9*-97--|
|-9*-9-9P11-9P11--9*-9-9P11-9P11--7*-777--9*-977-|
|-9*-9-7P-9-7P-9--9*-9-7P-9-7P-9--5*-575--7*-757-|
|-7*-7------------7*-7----------------5--------5-|

|-------------------|
|-------------------|
|-------------------|
|-9-7P9-7P9-7P9-9-9-|
|-9-7P9-7P9-7P9-9-9-|
|-7-5P7-5P7-5P7-7-7-|

|------------------|
|------------------|
|-12-12P7-12-------|
|-12-12P7-12--7727-|
|-10-10P5-10--7727-|
|-------------5505-|

|-----------------|         |------------|
|-----------------|         |------------|
|-------------797-|         |------------|
|-9*-947---9*-797-| x3 then |-9*-947--9*-|
|-9*-947---9*-575-|         |-9*-947--9*-|
|-7*-725---7*-----|         |-7*-725--7*-|

|-7-7-|
|-7-7-| x7
|-----|        each 2 and a bit seconds apart
|-----|
|-----|
|-----|

|------------------------------------------------|
|------------------------------------------------|
|------9P11-9P11-------9P11-9P11--7*-7-7--9*-97--|
|-9*-9-9P11-9P11--9*-9-9P11-9P11--7*-777--9*-977-|
|-9*-9-7P-9-7P-9--9*-9-7P-9-7P-9--5*-575--7*-757-|
|-7*-7------------7*-7----------------5--------5-|
[ Tab from: http://www.guitartabs.cc/tabs/w/weird_al_yankovic/pretty_fly_for_a_rabi_tab.html ]
|-------------------------------------------------|
|-------------------------------------------------|
|------9P11-9P11-------9P11-9P11--7*-7-7--9791097-|
|-9*-9-9P11-9P11--9*-9-9P11-9P11--7*-777--9791097-|
|-9*-9-7P-9-7P-9--9*-9-7P-9-7P-9--5*-575--757-875-|
|-7*-7------------7*-7----------------5-----------|

|------------------------------------------------|
|------------------------------------------------|
|------9P11-9P11-------9P11-9P11--7*-7-7--9*-97--|
|-9*-9-9P11-9P11--9*-9-9P11-9P11--7*-777--9*-977-|
|-9*-9-7P-9-7P-9--9*-9-7P-9-7P-9--5*-575--7*-757-|
|-7*-7------------7*-7----------------5--------5-|

|-------------------|
|-------------------|
|-------------------|
|-9-7P9-7P9-7P9-9-9-|
|-9-7P9-7P9-7P9-9-9-|
|-7-5P7-5P7-5P7-7-7-|

|------------------|
|------------------|
|-12-12P7-12-------|
|-12-12P7-12--7727-|
|-10-10P5-10--7727-|
|-------------5505-|

|-----------------------|
|-----------------------|
|-----------------------|
|-9----9-9---9-9--99999-| then scrape 5th & 6th string 
|-9----9-9---9-9--99999-| with your pic
|-7----7-7---7-7--77777-|

|-----------------|         |------------|
|-----------------|         |------------|
|-------------797-|         |------------|
|-9*-947---9*-797-| x3 then |-9*-947--9*-|
|-9*-947---9*-575-|         |-9*-947--9*-|
|-7*-725---7*-----|         |-7*-725--7*-|

|--------|
|--------|
|----9P7-|
|--9P9P7-|
|--9P7P5-|
|--7P----|

|------------------------------------------------|
|------------------------------------------------|
|------9P11-9P11-------9P11-9P11--7*-7-7--9*-97--|
|-9*-9-9P11-9P11--9*-9-9P11-9P11--7*-777--9*-977-|
|-9*-9-7P-9-7P-9--9*-9-7P-9-7P-9--5*-575--7*-757-|
|-7*-7------------7*-7----------------5--------5-|

|-------------------------------------------------|
|-------------------------------------------------|
|------9P11-9P11-------9P11-9P11--7*-7-7--9791097-|
|-9*-9-9P11-9P11--9*-9-9P11-9P11--7*-777--9791097-|
|-9*-9-7P-9-7P-9--9*-9-7P-9-7P-9--5*-575--757-875-|
|-7*-7------------7*-7----------------5-----------|

|------------------------------------------------|
|------------------------------------------------|
|------9P11-9P11-------9P11-9P11--7*-7-7--9*-97--|
|-9*-9-9P11-9P11--9*-9-9P11-9P11--7*-777--9*-977-|
|-9*-9-7P-9-7P-9--9*-9-7P-9-7P-9--5*-575--7*-757-|
|-7*-7------------7*-7----------------5--------5-|

|-------------------|
|-------------------|
|-------------------|
|-9-7P9-7P9-7P9-9-9-|
|-9-7P9-7P9-7P9-9-9-| x3
|-7-5P7-5P7-5P7-7-7-|

|------------------|
|------------------|
|-12-12P7-12-------|
|-12-12P7-12--7727-|
|-10-10P5-10--7727-|
|-------------5505-|
Comments