Weezer - Why Bother Chords & Tabs

 

Why Bother Chords & Tabs

Weezer Chords & Tabs

Version: 2 Type: Tab 0 ratings
1 star 2 stars 3 stars 4 stars 5 stars
comments

Why Bother Tab

   
Why Bother?
Weezer
Tabbed By: John Ellis 
dominator0039@webtv.net

The Other version of this song is missing so much they shouldn't
have even wasted their time writing it.

Verse

Guitars 1 & 2 (x2)
   E5   G#5  A5   B5   E5   G#5  A5   B5
e|--------------------------------------------------------------|
B|--------------------------------------------------------------|
G|---------------------9----------------------------------------|
D|-2----6----7----9----9----6----7----9-------------------------|
A|-2----6----7----9----7----6----7----9-------------------------|
E|-0----4----5----7---------4----5----7-------------------------|

Chorus
Guitar 1
   E5    C#5   A5    B5 (x2)| G#5         A5          B5     E5
e|--------------------------|-----------------------------------|
B|--------------------------|-----------------------------------|
G|-------6--6---------------|--------------------------------9--|
D|-2--2--6--6--7--7--9--9---|-6--6--6--6--7--7--7--7--9------9--|
A|-2--2--4--4--7--7--9--9---|-6--6--6--6--7--7--7--7--9------7--|
E|-0--0--------5--5--7--7---|-4--4--4--4--5--5--5--5--7---------|
[ Tab from: http://www.guitartabs.cc/tabs/w/weezer/why_bother_tab_ver_2.html ]
Solo
Guitar 1
e|----12-----12-----12------------------------------------------|
B|--------12-----12-----------------14-14-----------------------|
G|-9--------------------12-12-12-12----------13-12-13-12-11-12-11
D|--------------------------------------------------------------|
A|--------------------------------------------------------------|
E|--------------------------------------------------------------|
 |								
e|----------------------------------------------20b-20b---------|
B|--------------12-----13-----14--14-14-14-16b------------------|
G|-9-11-9-11--------11-----11-----------------------------------|
D|--------------------------------------------------------------|
A|--------------------------------------------------------------|
E|--------------------------------------------------------------|
 |								
e|-20--18-17-16-------------------------------------------------|
B|--------------17-16-------------------------------------------|
G|--------------------------------------------------------------|
D|--------------------------------------------------------------|
A|--------------------------------------------------------------|
E|--------------------------------------------------------------|

Guitar 2
   E5   G#5  A5   B5   E5   G#5  A5   B5
e|--------------------------------------------------------------|
B|--------------------------------------------------------------|
G|---------------------9----------------------------------------|
D|-2----6----7----9----9----6----7----9-------------------------|
A|-2----6----7----9----7----6----7----9-------------------------|
E|-0----4----5----7---------4----5----7-------------------------|


Bridge
Guitar 1
e|----------------------------19--------------------------------|
B|-17----19----17----b------------------------------------------|
G|--------------------------------------------------------------|
D|--------------------------------------------------------------|
A|--------------------------------------------------------------|
E|--------------------------------------------------------------|

Guitar 2
e|--------------------------------------------------------------|
B|--------------------------------------------------------------|
G|-4----6----6----8----8----9----9----11------------------------|
D|--------------------------------------------------------------|
A|-2----4----4----6----6----7----7----9-------------------------|
E|--------------------------------------------------------------|

Guitars 1 & 2
   E5    C#5   A5    B5    C#5   G#5   A5    B5
e|--------------------------------------------------------------|
B|--------------------------------------------------------------|
G|-------6--6--------------6--6---------------------------------|
D|-2--2--6--6--7--7--9--9--6--6--6--6--7--7--9--9---------------|
A|-2--2--4--4--7--7--9--9--4--4--6--6--7--7--9--9---------------|
E|-0--0--------5--5--7--7--------4--4--5--5--7--7---------------|
 | E5    C#5   A5    B5     E5    G#5   A5    B5     E5         |
e|--------------------------------------------------------------|
B|--------------------------------------------------------------|
G|-------6--6--------------x9------------------------9----------|
D|-2--2--6--6--7--7--9--9--x9----x6----x7----x9------9----------|
A|-2--2--4--4--7--7--9--9--x7----x6----x7----x9------7----------|
E|-0--0--------5--5--7--7--------x4----x5----x7------0----------|
Comments