Weezer - We Are All On Drugs Chords & Tabs

 

We Are All On Drugs Chords & Tabs

Weezer Chords & Tabs

Version: 4 Type: Tab 0 ratings
1 star 2 stars 3 stars 4 stars 5 stars
comments

We Are All On Drugs Tab

Intro (x2)

E  :-------------------------------------------------6-------------|
B  :-4-6-74-6-7-4-6----4-7---6-7-4-6----6-7---6-7---6--6-7---6-7-6|
G  :------------------4-----4----------6-----6-----6--------6------|
D  :---------------------------------------------------------------|
A  :---------------------------------------------------------------|
E  :---------------------------------------------------------------|
	

Verse (x4)

E  :----------------------------------------------------------|
B  :----------------------------------------------------------|
G  :-8-8-8-8-8-8-8-8------------------------------------------|
D  :-8-8-8-8-8-8-8-8--10-10-10-10-10-10-10-10--9-9-9-9-9-9-9-9|
A  :-6-6-6-6-6-6-6-6--10-10-10-10-10-10-10-10--9-9-9-9-9-9-9-9|
E  :-------------------8--8--8--8--8--8--8--8--7-7-7-7-7-7-7-7|

E  :--------------------|
B  :--------------------|
G  :-6-6-6-6-6-6-6-6----|
D  :-6-6-6-6-6-6-6-6----|
A  :-4-4-4-4-4-4-4-4----|
E  :--------------------|


Bridge
					
E  :--------------------------------------------------------------------|
B  :--------------------------------------------------------------------|
G  :--------------------------------------------------------------------|
D  :-6-6-6-6-6-6-6-6--6-6-8-8-8-8-8-8--9-9-9-9-9-9-9--9--9-9-9-9-9-9-9-9|
A  :-6-6-6-6-6-6-6-6--8-8-8-8-8-8-8-8--9-9-9-9-9-9-9--9--9-9-9-9-9-9-9-9|
E  :-4-4-4-4-4-4-4-4--6-6-6-6-6-6-6-6--7-7-7-7-7-7-7--7--7-7-7-7-7-7-7-7|

E  :--------------------------------------------------------------------|
B  :--------------------------------------------------------------------|
G  :------------------------------------------------------6----7--------|
D  :-6-6-6-6-6-6-6-6--6-6-8-8-8-8-8-8--9-9-9-9-9-9-9-9----6----7--------|
A  :-6-6-6-6-6-6-6-6--8-8-8-8-8-8-8-8--9-9-9-9-9-9-9-9----4----5--------|
E  :-4-4-4-4-4-4-4-4--6-6-6-6-6-6-6-6--7-7-7-7-7-7-7-7------------------|


Solo	
[ Tab from: http://www.guitartabs.cc/tabs/w/weezer/we_are_all_on_drugs_tab_ver_4.html ]
E  :----------------------------------------------9----9--11-9----11-9-----|
B  :-9/11--11--9------9--------------------9--11---------------11------11--|
G  :--------------11-----11--8-8----8--11----------------------------------|
D  :-----------------------------------------------------------------------|
A  :-----------------------------------------------------------------------|
E  :-----------------------------------------------------------------------|

E  :-13-11------13-11------13-11------13-11------13------------------------|
B  :--------11---------11---------11---------11----------------------------|
G  :-----------------------------------------------------------------------|
D  :-----------------------------------------------------------------------|
A  :-----------------------------------------------------------------------|
E  :-----------------------------------------------------------------------|

E  :-14-13-14-16-14-16-17-16-17-16-14-16-14--------------------------|
B  :----------------------------------------16-14-16-----------------|
G  :-----------------------------------------------------------------|
D  :-----------------------------------------------------------------|
A  :-----------------------------------------------------------------|
E  :-----------------------------------------------------------------|


Outro

E  :---------------------------------------------------------------|
B  :----4-----4--6--7--------4-6-7--4-6-7--4-6---------------------|
G  :-5-----5-------------------------------------------------------|
D  :---------------------------------------------------------------|
A  :---------------------------------------------------------------|
E  :---------------------------------------------------------------|

E  :-----------------pluck back and forth fast---------------------|
B  :--8(x?)--------------------7(x?)--------------6(x?)------------|
G  :---------------------------------------------------------------|
D  :---------------------------------------------------------------|
A  :---------------------------------------------------------------|
E  :---------------------------------------------------------------|

E  :---------------------------------------------------------------|
B  :--8(x?)--------------------7(x?)------------6(x?)----------4~~~|
G  :---------------------------------------------------------------|
D  :---------------------------------------------------------------|
A  :---------------------------------------------------------------|
E  :---------------------------------------------------------------|



Order:

Intro (x2)
Verse (x4)
Chorus (x2)
Verse (x4)
Chorus (x2)
Bridge
Solo
Intro (x2)
Chorus (x4)
Outro
Comments