Weezer - We Are All On Drugs Chords & Tabs

 

We Are All On Drugs Chords & Tabs

Weezer Chords & Tabs

Version: 3 Type: Tab 0 ratings
1 star 2 stars 3 stars 4 stars 5 stars
comments

We Are All On Drugs Tab

This is a great song to play, it sounds great and is easy to do. 

Intro/Brigde 2:

e|-------------------|-------------------|
B|----6-7---6-7---7--|------7-----7---7--|
G|--8-----8-----8----|--5-8---5-8---5----|
D|-------------------|-------------------|
A|-------------------|-------------------|
E|-------------------|-------------------|

e|-------------------|-------------------|
B|----6-7---6-7---7--|------7-----7------|
G|--8-----8-----8----|--5-8---5-8---5----|
D|-------------------|-------------------|
A|-------------------|-------------------|
E|-------------------|-------------------|


Verse/Chorus:

palm mute on verse
e|-------------------------------------------|
B|-------------------------------------------|
G|--8-8-8-8-8-8-8-8--------------------------|
D|--8-8-8-8-8-8-8-8-10-10-10-10-10-10-10-10--|
A|--6-6-6-6-6-6-6-6-10-10-10-10-10-10-10-10--|
E|-------------------8--8--8--8--8--8--8--8--|

e|-------------------------------------------|
B|-------------------------------------------|
G|-------------------------------------------|
D|--9-9-9-9-9-9-9-9-11-11-11-11-11-11-11-11--|
A|--9-9-9-9-9-9-9-9-11-11-11-11-11-11-11-11--|
E|--7-7-7-7-7-7-7-7--9--9--9--9--9--9--9--9--|


Bridge 1:

e|---------------------------------------------------|
B|---------------------------------------------------|
G|---------------------------------------------------|
D|--6-6-6-6-6-6-6-6-8-8-8-8-8-8-8-8-9-9-9-9-9-9-9-9--|
A|--6-6-6-6-6-6-6-6-8-8-8-8-8-8-8-8-9-9-9-9-9-9-9-9--|
E|--4-4-4-4-4-4-4-4-6-6-6-6-6-6-6-6-7-7-7-7-7-7-7-7--|

play first time on bridge only
e|-------------------|
B|-------------------|
G|-------------------|
D|--9-9-9-9-9-9-9-9--|
A|--9-9-9-9-9-9-9-9--|
E|--7-7-7-7-7-7-7-7--|
[ Tab from: http://www.guitartabs.cc/tabs/w/weezer/we_are_all_on_drugs_tab_ver_3.html ]
play second time on bridge only
e|------------|
B|------------|
G|------------|
D|--11----12--|
A|--11----12--|
E|---9----10--|


Solo:

e|----------------------------|---------------------|
B|----------------------------|--------------11-14--|
G|--13^----13-11-13-11--------|--------11-13--------|
D|---------------------13-13--|--13-----------------|
A|----------------------------|---------------------|
E|----------------------------|---------------------|

e|--------11-9-----11-9--|-----13-11------13-11------13-11------13-11--|
B|--14-11-------11-------|--11---------11---------11---------11--------|
G|-----------------------|---------------------------------------------|
D|-----------------------|---------------------------------------------|
A|-----------------------|---------------------------------------------|
E|-----------------------|---------------------------------------------|

e|--11-13-11-14-16-14-16^-16^-14-16-14-----------|--16\--|
B|-------------------------------------16-14-16--|-------|
G|-----------------------------------------------|-------|
D|-----------------------------------------------|-------|
A|-----------------------------------------------|-------|
E|-----------------------------------------------|-------|


Outro:

e|------------|-------------------|-----------------------------------|
B|------6-6^--|----6-7---6-7---7--|--8------7---6---8------7---6------|
G|--5-8-------|--8-----8-----8----|--------------------------------8--|
D|------------|-------------------|-----------------------------------|
A|------------|-------------------|-----------------------------------|
E|------------|-------------------|-----------------------------------|


Finish Chord:

e|-----|
B|-----|
G|--8--|
D|--8--|
A|--6--|
E|-----|
Comments