Weezer - We Are All On Drugs Chords & Tabs

 

We Are All On Drugs Chords & Tabs

Weezer Chords & Tabs

Version: 2 Type: Tab 0 ratings
1 star 2 stars 3 stars 4 stars 5 stars
comments

We Are All On Drugs Tab

Weezer - We Are All On Drugs
From 2005's Make Believe
tabbed by: Gunstar (gunstar@zarnes.com)

	intro
E  :----------------|------------------------|---------------6|
B  :--6-7---6-7---7-|-----4--7-----4--7-----7|---6-7---6-7----|
G  :8-----8-----8---|--5--------5--------5---|-8-----8-----8--|
D  :----------------|------------------------|----------------|
A  :----------------|------------------------|----------------|
E  :----------------|------------------------|----------------|
	this is also the verse and chorus (don't forget the pickscrapes going into the chorus!)
E  :----------------|------------------------|----------------|
B  :----------------|------------------------|----------------|
G  :8-8-8-8-8-8-8-8-|------------------------|----------------|
D  :8-8-8-8-8-8-8-8-|-10-10-10-10-10-10-10-10|-9-9-9-9-9-9-9-9|
A  :6-6-6-6-6-6-6-6-|-10-10-10-10-10-10-10-10|-9-9-9-9-9-9-9-9|
E  :----------------|--8--8--8--8--8--8--8--8|-7-7-7-7-7-7-7-7|

E  :-----------------------|
B  :--------7-----6--7----7|
G  :-----8-----8--------8--|
D  :-----------------------|
A  :-----------------------|
E  :-----------------------|

E  :-----------------------|
B  :-----------------------|
G  :-----------------------|
D  :-11-11-11-11-11-11-11--|
A  :-11-11-11-11-11-11-11--|
E  :--9--9--9--9--9--9--9--|

	bridge						first time only
E  :----------------|----------------|----------------|----------------|
B  :----------------|----------------|----------------|----------------|
G  :----------------|----------------|----------------|----------------|
D  :-6-6-6-6-6-6-6-6|-6-6-8-8-8-8-8-8|-9-9-9-9-9-9-9-9|-9-9-9-9-9-9-9-9|
A  :-6-6-6-6-6-6-6-6|-8-8-8-8-8-8-8-8|-9-9-9-9-9-9-9-9|-9-9-9-9-9-9-9-9|
E  :-4-4-4-4-4-4-4-4|-6-6-6-6-6-6-6-6|-7-7-7-7-7-7-7-7|-7-7-7-7-7-7-7-7|

E  :----------------|----------------|----------------|----------------|
B  :----------------|----------------|----------------|----------------|
G  :----------------|----------------|----------------|----------------|
D  :----------------|----------------|----------------|----------------|
A  :----------------|----------------|----------------|----------------|
E  :----------------|----------------|----------------|----------------|
[ Tab from: http://www.guitartabs.cc/tabs/w/weezer/we_are_all_on_drugs_tab_ver_2.html ]
	second time				solo
E  :-----------------------|------------------|----------------------|
B  :-----------------------|------------------|----------------------|
G  :-----------------------|------------------|13^-----------13---11-|
D  :--11-11-11-11-11-11-11-|11-------12-------|----------------------|
A  :--11-11-11-11-11-11-11-|11-------12-------|----------------------|
E  :---9--9--9--9--9--9--9-|-9-------10-------|----------------------|

E  :----------------------------------|------------------------------|
B  :----------------------------------|----------------------11---14-|
G  :-13----11-------------------------|----------11----13------------|
D  :-------------------13-------13----|---13-------------------------|
A  :----------------------------------|------------------------------|
E  :----------------------------------|------------------------------|

E  :----14----13-14-16----14-16^---16-|14----16^-16-14----11---------|
B  :----------------------------------|------------------------------|
G  :----------------------------------|------------------------------|
D  :----------------------------------|------------------------------|
A  :----------------------------------|------------------------------|
E  :----------------------------------|------------------------------|

E  :------11--9------11-|9-----13--11--------|-13---11--------13-11|
B  :--11---------11-----|--11------------11--|-----------11--------|
G  :--------------------|--------------------|---------------------|
D  :--------------------|--------------------|---------------------|
A  :--------------------|--------------------|---------------------|
E  :--------------------|--------------------|---------------------|

E:----------13--11------|----14----13-14-16----14-16^---16-|14----16^-16-14----11---------|
B:------11--------------|----------------------------------|------------------------------|
G:----------------------|----------------------------------|------------------------------|
D:----------------------|----------------------------------|------------------------------|
A:----------------------|----------------------------------|------------------------------|
E:----------------------|----------------------------------|------------------------------|

then slam the chorus at the end
Comments