Weezer - We Are All On Drugs Chords & Tabs

 

We Are All On Drugs Chords & Tabs

Weezer Chords & Tabs

Version: 1 Type: Tab 0 ratings
1 star 2 stars 3 stars 4 stars 5 stars
comments

We Are All On Drugs Tab

   
Tabbed By:  PeanutFarmer

This is Weezer's next single, and a really good song.  However, I only obtained part
of the song through the making of beverly hills video, so its incomplete.  But if
anyone wants to jam to it anyway, here ya go.

Tuning:  Standard (unless tuned down, this is it in Standard anyway)

Key:  F major 

INTRO: (play as many times as necessary)

Play fast:

e|-1-1-3-4-----------------------------------------------------------------|
B|-------------------------------------------------------------------------|
G|-------------------------------------------------------------------------|
D|-------------------------------------------------------------------------|
A|-------------------------------------------------------------------------|
E|-------------------------------------------------------------------------|

VERSE:

   When you're..    new Merce..     you're on..     drugs...
[ Tab from: http://www.guitartabs.cc/tabs/w/weezer/we_are_all_on_drugs_tab.html ]
   F5               E5              F5              G5/C5  
e|-------------------------------------------------------------------------|
B|-------------------------------------------------------------------------|
G|--------------------------------------------------5----------------------|
D|-3----------------2---------------3---------------5----------------------|
A|-3----------------2---------------3---------------3----------------------|
E|-1----------------0---------------1---------------3----------------------|


   And you show..   think you..     you're on..     drugs...    

   F5               E5              F5              G5/C5  
e|-------------------------------------------------------------------------|
B|-------------------------------------------------------------------------|
G|--------------------------------------------------5----------------------|
D|-3----------------2---------------3---------------5----------------------|
A|-3----------------2---------------3---------------3----------------------|
E|-1----------------0---------------1---------------3----------------------|


This is all I was able to decipher from the little clip from the making of BvH.
The other verse part is the same as this, with the appropriate words.
Comments