Weezer - We Are All On Drugs Chords & Tabs

 

We Are All On Drugs Chords & Tabs

Weezer Chords & Tabs

Version: 1 Type: Bass Tab 0 ratings
1 star 2 stars 3 stars 4 stars 5 stars
comments

We Are All On Drugs Bass Tab

   
Tabbed by TheJew72 for ultimate-guitar.com
Standard E A D G tuning
This song is entirely too easy for how great it sounds
[ Tab from: http://www.guitartabs.cc/tabs/w/weezer/we_are_all_on_drugs_btab.html ]
G|----------------|----------------|----------------|----------------|
D|----------------|----------------|----------------|----------------|
A|6-6-6-6-6-6-6-6-|----------------|----------------|----------------|
E|----------------|8-8-8-8-8-8-8-8-|7-7-7-7-7-7-7-7-|9-9-9-9-9-9-9-9-|

G|----------------|----------------|----------------|----------------|
D|----------------|----------------|----------------|----------------|
A|6-6-6-6-6-6-6-6-|----------------|----------------|----------------|
E|----------------|8-8-8-8-8-8-8-8-|7-7-7-7-7-7-7-7-|9-9-9-9-9-9-9-9-|

Repeat throughout entire song.
Comments