Weezer - Velouria Chords & Tabs

 

Velouria Chords & Tabs

Weezer Chords & Tabs

Version: 1 Type: Bass Tab 0 ratings
1 star 2 stars 3 stars 4 stars 5 stars
comments

Velouria Bass Tab

   
Velouria Bass Tabs
Tabbed by: Ian Reynolds
Written By: The Pixies
Album: Where Is My Mind
As Performed by: Weezer
Riff 1
G-------------------------------|
D ------------------------------|
A ----------------0--0--1---1-1-|
E 0--0--1---1-1-----------------|

Riff 2
G -------------------------------------|
D -------------------------------------|
A -----------------------0--0--1---1-1-|
E 0--0--0--0--1---1-1------------------|

Riff 3
G --------------|
D --------------|
A ------------0-|
E 0--0--0--0----|

Riff 4
G---------------------------------------------------|
D --------------------------------------------------|
A ---------------------5---5-5----1---1-1-----------|
E -5---5-5----1---1-1-----------------------1---1-1-|
[ Tab from: http://www.guitartabs.cc/tabs/w/weezer/velouria_btab.html ]
G ------------------------------------------------------|
D ------------------------------------------------------|
A -0---0-0-----------------5---5-5---1---1-1------------|
E ------------1---1-1---------------------------1---1-1-|

 Riff 5
 G -----------------------------------------|
 D -----------------------------------------|
 A ----------------------5---5-5----1---1-1-|
 E -5---5-5---1---1-1-----------------------|

Riff 6
G -----------------------------------------------------|
D -----------------------------------------------------|
A -0---0---1--------1--------1---------1-1-1-1-4-4-4-4-|
E -----------------------------------------------------|

G ---------|
D ---------|
A -4-4-4-4-|
E ---------|

Riff 7
G --------|
D --------|
A -1------|
E ------1-|

Riff Structure

Riff 1 x1
Riff 2 x3
Riff 3 x1
Riff 4 x2
Riff 1 x1
Riff 2 x2
Riff 3 x1
Riff 4 x1
Riff 5 x1
Riff 1 x1
Riff 2 X2
Riff 6 x1
Riff 1 x1
Riff 2 x2
Riff 3 x1
Riff 4 x1
Riff 7 x1
Riff 1 x1
Riff 2 x6

It's really easy if you know the song
-ian
Comments