Weezer - Undone (the Sweater Song) Chords & Tabs

 

Undone (the Sweater Song) Chords & Tabs

Weezer Chords & Tabs

Version: 6 Type: Tab 0 ratings
1 star 2 stars 3 stars 4 stars 5 stars
comments

Undone (the Sweater Song) Tab

Intro
eb|--------------------------------------------------------------------|
Bb|-o----------------0-----------0-----------0-----------0-----------o-|
Gb|---------------3-----------3-----------5-----------3----------------|
Db|------------2-----------2-----------4-----------2-------------------|
Ab|-o-------------------3-----------5-----------3--------------------o-|
Eb|--------3-----------------------------------------------------------|

There’s only bass and drums in the verses.

Chorus
eb|--------------------------------------------------------------------|
Bb|-o----------------------------------------------------------------o-|
Gb|---------------------5--5--5--5---7--7--7--7---5--5--5--5-----------|
Db|--------5--5--5--5---5--5--5--5---7--7--7--7---5--5--5--5-----------|
Ab|-o------5--5--5--5---3--3--3--3---5--5--5--5---3--3--3--3---------o-|
Eb|--------3--3--3--3--------------------------------------------------|
[ Tab from: http://www.guitartabs.cc/tabs/w/weezer/undone_the_sweater_song_tab_ver_6.html ]
Solo: 
b= bend half step up
h= hammer on
p= pull off
/= slide up
\= slide down
~= vibrato
eb|---------------------------------------------------------------------|
Bb|---------------------------------------------------------------------|
Gb|---------------------------------------------------------------------|
Db|-8-8-8----8b----8-8-8----8b----8-8-8----8-10-12-12b-10-8\7-7/8-10p8--|
Ab|-------10----10-------10----10-------10------------------------------|
Eb|---------------------------------------------------------------------|

eb|---------------------------------------------------------------------|
Bb|---------------------------------------------------------------------|
Gb|--------------------------------------------11b-10-8-----------------|
Db|------8~------12-12-10-8------(8)-h-12-10-8----------12p8-8h10-10h12-|
Ab|-8-10----10-8------------8-10----------------------------------------|
Eb|---------------------------------------------------------------------|

eb|---------------------------------------------------------------------|
Bb|----------------------------------------------------15----15----15---|
Gb|-------------------12h14-14/15-15h17-17p15-14----------12------------|
Db|-12-12/13-13h15-15----------------------------17-15----------12------|
Ab|---------------------------------------------------------------------|
Eb|---------------------------------------------------------------------|

eb|---------------16b-15----19b-18-17-----------------------------------|
Bb|----15----------------18-----------15~~~-----------------------------|
Gb|-12----12------------------------------------------------------------|
Db|----------15~~-------------------------------------------------------|
Ab|---------------------------------------------------------------------|
Eb|---------------------------------------------------------------------|

Return to chorus
Comments